Oops, an error
Loading. Please wait.

Alan Smith - Between The Titans Teeth Bass Tab

103 views 1 this week
no commentswrite comment
1 2 3 4 5
3 more votes to show rating
add to favorites
launch autoscroll
font size
0
reset
guitar tuner
Autoscroll
slow
fast
+/-
esc
set tempo
stop
Help us to improve Ultimate-Guitar.com Take our survey!
×
Author
Difficulty
intermediate
I wrote this

h-hammer on
p- pull off
/\- slides

|-------5h7-----------------------------|
|-----------------5h7-------------------|X2} Fast
|--555------555-------------------------|
|---------------------------------------|

|-----------------7h9-------------------------|
|--------7h9----------------9-7\3\2-----------|    Build-up Speed to the Slide
|---777------777------777---------------------|     then slow down
|---------------------------------------------|


|---------------------------------------------------------|
|--2---------------------------------|    Chorus  (slow---| X3
|-----3-2-3/4---------------------------------------------|
|---------------54543-------------------------------------|

|-----------------------------------------------------------------|
|-------------------------------------|  Break Down but Speed up--| X3
|----------------------------3p2----------------------------------|
|--0-0-2h3---0-0-1h2---0-0----------------------------------------|


|---------------------999h10h11/131211----|
|---------------10p9----------------------|   Solo
|-3/9----91011----------------------------|
|-----------------------------------------|


|------00---13h14---000--12h13------|
|-----------------------------------|  Outro (plam mute!)X2
|-----------------------------------|
|-----------------------------------|
Suggest correction
Give kudos to tab author, rate the tab!
1 2 3 4 5
comments
print report bad tab
guest
You may want to rate the tab now too:
select rating
Wanna post a correction for this tab? Suggest correction