Oops, an error
Loading. Please wait.

Algo Ironico - Diegos Song Bass Tab

37 views 1 this week
no commentswrite comment
1 2 3 4 5
please rate
add to favorites
launch autoscroll
font size
0
reset
guitar tuner
Tab Pro tools
  • play this tab
  • loop segment
  • change instrument
  • show fretboard
  • metronome
×
Best way to learn
"Algo Ironico - Diegos Song"
Autoscroll
slow
fast
+/-
esc
set tempo
stop
Contributor
My First Tab:

Intro

|--------------|----------------|
|--------------|----------------|
|-(diego toca)-|7--7--x--7--7--x| 
|--------------|----------------|

Verse

|-------------------|-------------------|
|-------------------|-------------------|
|8--8--8b---8--8--8b|7--7--7b---7--7--7b|
|-------------------|-------------------|

Bridge

|----- --------|----------------|
|--------------|----------------|
|--------------|3--3--3-3b------|
|1--1--1-1--1--|----------------|

Chorus 

|----10-10------10-10|----5-5------5-5|----10-10------10-10|----------------|
|--------------------|----------------|--------------------|----5-5------5-5|
|8-8--------8-8------|3-3------3-3----|8-8--------8-8------|----------------|
|--------------------|----------------|--------------------|3-3------3-3----|

Guitar Solo (The Verse)

|-------------------|-------------------|
|-------------------|-------------------|
|8--8--8b---8--8--8b|7--7--7b---7--7--7b|
|-------------------|-------------------|

Outro

|----------------|----------------|----------------|----------------|
|----------------|----------------|----------------|----------------|
|8b-------------x|7b-------------x|8b-------------x|7b-------------x|
|----------------|----------------|----------------|----------------|


The song is:

Intro

Verse 4x

Bridge

Chorus 2x

Verse 4xx

Brige

Chorus 2x

Guitar Solo

Chorus 2x

Outro
comments
We did not receive enough feedback on this tab! Please rate:
print report bad tab
1 2 3 4 5
I want to post or [tab]
guest
You may want to rate the tab now too:
select rating
Please do not post tabs as comments. Select "correction" instead!