Oops, an error
Loading. Please wait.

Alialujah Choir - A House A Home Chords

40 views 1 this week
no commentswrite comment
1 2 3 4 5
3 more votes to show rating
add to favorites
launch autoscroll
font size
0
reset
transpose
0
reset
display chords
guitar tuner
Autoscroll
slow
fast
+/-
esc
set tempo
stop
Help us to improve Ultimate-Guitar.com Take our survey!
×
Author
Difficulty
Capo
intermediate
1st fret
"A House, A Home" - Alialujah Choir
STANDARD TUNING
CAPO 1

[INTRO] 
D  Am  C  G x3

BACKED OR INTERSPERSED WITH STRUMMING
(NOTATION RELATIVE TO CAPO)

    D             Am                 C        G          
e|--2---2-----------0----------------------------------------------|
B|--3---3-3---------1--1p0h1---------------------------------------|
G|--2-----2-2-------2-------2p0h2--2/4-4-4--4/5-5-5--4-4-4---------|
D|--0-------0-------2----------------------------------------------|
A|--0---------------0----------------------------------------------|
E|-----------------------------------------------------------------|

    D               Am        C         G              
e|-----------------------------------------------------------------|
B|--1p0h1----------------------------------------------------------|
G|---------2p0h2--4p2h4/5-5--9-9p7-7---11h12--14--12p11--12p11-----|
D|-----------------------------------------------------------------|
A|-----------------------------------------------------------------|
E|-----------------------------------------------------------------|


[VERSE]
D                          Am
He gave us sheets made our beds 
C                 G
Tonight we're not alone 
         D   Am   C   G
I am not scared 


[VERSE]
D                           Am
We shared our pills when we needed hope 
C                         G
You brushed my arm in the hall 
                D   Am  C  G
When you walked by 


[INTERLUDE]
   Am               C         G              
e|-----------------------------------------------------------------|
B|---------------------------------1--1--1--1---1--1--1---0--------|
G|-8/9-9-9-9----7p5h7--7/4-2h4-4--4--4--4--4--4--4--4---3--3--0----|
D|-----------------------------------------------------------------|
A|-----------------------------------------------------------------|
E|-----------------------------------------------------------------|


[VERSE]
D                        Am
I know my heart makes me wicked 
C                    G
No one believes me I know 
              D   Am   C   G
That's what I saw 


[VERSE]
D                           Am
Out through the door of his office 
C                    G
You love him I'm all alone 
           D   Am   C   G
Covered in blood 

[BREAK]
D  Am  C  G  x4
Oooooh


[VERSE]
D                            Am
The good doctor he loves Dorothea 
C                       G
Now that I'm gone I can know 
         D    Am   C   G
I was so wrong 


[VERSE]
D                     Am
You die knowing he'll bury you 
C                        G
next to your love in the ground 
                      D   Am   C   G
We'll be parked under cars


[OUTRO]
D  Am  C  G x4
Oooooh
Suggest correction
Give kudos to tab author, rate the tab!
1 2 3 4 5
comments
print report bad tab
guest
You may want to rate the tab now too:
select rating
Wanna post a correction for this tab? Suggest correction