Oops, an error
Loading. Please wait.

Alive And Dying - Not Okay tab

56 views 1 this week
no commentswrite comment
1 2 3 4 5
3 more votes to show rating
add to favorites
×
Save as Personal and add changes to this tab that will be seen only by you. Learn more ›
×
You can save this tab as Personal to edit and correct it or add notes. All changes will be seen only by you. Learn more »
launch autoscroll
font size
0
reset
how to read this tab
guitar tuner
edit
Autoscroll
slow
fast
+/-
esc
set tempo
stop
Author
Difficulty
"Not Okay"
Tabbed by Brad Frey

_______________________________________________________________________
Symbol--Technique
_______________________________________________________________________
h       hammer on 
p       pull off 
b       bend string up 
r       release bend
\       slide down 
v       vibrato
*       natural harmonic
[n]artificial harmonic
x  on rhythm slash represents muted slash
() ghost note
_______________________________________________________________________
_______________________________________________________________________

Guitar 1 (Clean) Tuning: E A D G B E

Guitar 2 (Distorted) Tuning: E A D G B E

Bass (Clean) Tuning: D A D G B E

_______________________________________________________________________
_______________________________________________________________________



  Gtr I
||---------------------------------|---------------------------------||
||---------------------------------|---------------------------------||
||-------0-------0-------0-----2-0-|-------0-------0-------0-----2-0-||
||-----2-------0-------0-----2-----|-----2-------0-------0-----2-----||
||---2-------2-------0-----0-------|---2-------2-------0-----0-------||
||-0-------3-------2---------------|-0-------3-------2---------------||
|                                                                     |
|                                                                     |
| Bass - No bass, or drums                                            |
||---------------------------------|---------------------------------||
||---------------------------------|---------------------------------||
||---------------------------------|---------------------------------||
||---------------------------------|---------------------------------||




  Gtr I
||---------------------------------|---------------------------------||
||---------------------------------|---------------------------------||
||-------0-------0-------0-----2-0-|-------0-------0-------0-----2-0-||
||-----2-------0-------0-----2-----|-----2-------0-------0-----2-----||
||---2-------2-------0-----0-------|---2-------2-------0-----0-------||
||-0-------3-------2---------------|-0-------3-------2---------------||
|                                                                     |
|    Those days still...         Thought of, better ways...           |
| Bass - Bass and drums come in                                       |
||---------------------------------|---------------------------------||
||---------------------------------|---------------------------------||
||---------------------------------|---------------------------------||
||-2-2-----5-5-----0-0-----7-7-----|-2-2-----5-5-----0-0-----7-7-----||



  
  Gtr I
||---------------------------------|---------------------------------||
||---------------------------------|---------------------------------||
||-------0-------0-------0-----2-0-|-------0-------0-------0-----2-0-||
||-----2-------0-------0-----2-----|-----2-------0-------0-----2-----||
||---2-------2-------0-----0-------|---2-------2-------0-----0-------||
||-0-------3-------2---------------|-0-------3-------2---------------||
|                                                                     |
|    I wasted time...            Hurting, over again...               |
| Bass                                                                |
||---------------------------------|---------------------------------||
||---------------------------------|---------------------------------||
||---------------------------------|---------------------------------||
||-2-2-----5-5-----0-0-----7-7-----|-2-2-----5-5-----0-0-----7-7-----||




  Gtr I
||---------------------------------|---------------------------------||
||---------------------------------|---------------------------------||
||-------0-------0-------0-----2-0-|-------0-------0-------0-----2-0-||
||-----2-------0-------0-----2-----|-----2-------0-------0-----2-----||
||---2-------2-------0-----0-------|---2-------2-------0-----0-------||
||-0-------3-------2---------------|-0-------3-------2---------------||
|                                                                     |
|    They say it's...                  Someday I'll find...           |
| Gtr II                                                              |
||----*12--------------------------|----*12--------------------------||
||--*12----------------------------|--*12----------------------------||
||---------------------------------|---------------------------------||
||---------------------------------|---------------------------------||
||---------------------------------|---------------------------------||
||---------------------------------|---------------------------------||
|                                                                     |
|                                                                     |
| Bass                                                                |
||---------------------------------|---------------------------------||
||---------------------------------|---------------------------------||
||---------------------------------|---------------------------------||
||-2-2---2-5-5---5-0-0---0-7-7---7-|-2-2---2-5-5---5-0-0---0-7-7---7-||




  Gtr I
||---------------------------------|---------------------------------||
||---------------------------------|---------------------------------||
||-------0-------0-------0-----2-0-|-------0-------0-------0-----2-0-||
||-----2-------0-------0-----2-----|-----2-------0-------0-----2-----||
||---2-------2-------0-----0-------|---2-------2-------0-----0-------||
||-0-------3-------2---------------|-0-------3-------2---------------||
|                                                                     |
|                        Yeah, Everything's not okay...               |
| Gtr II        [n]                                                   |
||---------------------------------|---------------------------------||
||---------------------------------|---------------------------------||
||---------------4v--2v--0---------|---------------------------------||
||---2-4-5---0---------------4-2-0-|-2-------------------------------||
||---------------------------------|---------------------------------||
||---------------------------------|---------------------------------||
|                                                                     |
|                                                                     |
| Bass                                                                |
||---------------------------------|---------------------------------||
||---------------------------------|---------------------------------||
||---------------------------------|---------------------------------||
||-2-2---2-5-5---5-0-0---0-7-7---7-|-2-2---2-5-5---5-0-0---0-7-7---7-||




  Gtr I
||---------------------------------|---------------------------------||
||---------------------------------|---------------------------------||
||-------0-------0-------0-----2-0-|-------0-------0-------0-----2-0-||
||-----2-------0-------0-----2-----|-----2-------0-------0-----2-----||
||---2-------2-------0-----0-------|---2-------2-------0-----0-------||
||-0-------3-------2---------------|-0-------3-------2---------------||
|                                                                     |
|    Took care of...             page, it's over...                   |
| Bass                                                                |
||---------------------------------|---------------------------------||
||---------------------------------|---------------------------------||
||---------------------------------|---------------------------------||
||-2-2-----5-5-----0-0-----7-7-----|-2-2-----5-5-----0-0-----7-7-----||




  Gtr I
||---------------------------------|---------------------------------||
||---------------------------------|---------------------------------||
||-------0-------0-------0-----2-0-|-------0-------0-------0-----2-0-||
||-----2-------0-------0-----2-----|-----2-------0-------0-----2-----||
||---2-------2-------0-----0-------|---2-------2-------0-----0-------||
||-0-------3-------2---------------|-0-------3-------2---------------||
|                                                                     |
|    And now I've...             Distress, everything...              |
| Bass                                                                |
||---------------------------------|---------------------------------||
||---------------------------------|---------------------------------||
||---------------------------------|---------------------------------||
||-2-2-----5-5-----0-0-----7-7-----|-2-2-----5-5-----0-0-----7-7-----||




  Gtr I
||---------------------------------|---------------------------------||
||---------------------------------|---------------------------------||
||-------0-------0-------0-----2-0-|-------0-------0-------0-----2-0-||
||-----2-------0-------0-----2-----|-----2-------0-------0-----2-----||
||---2-------2-------0-----0-------|---2-------2-------0-----0-------||
||-0-------3-------2---------------|-0-------3-------2---------------||
|                                                                     |
|    They say it's...                  Someday I'll find...           |
| Gtr II                                                              |
||----*12--------------------------|----*12--------------------------||
||--*12----------------------------|--*12----------------------------||
||---------------------------------|---------------------------------||
||---------------------------------|---------------------------------||
||---------------------------------|---------------------------------||
||---------------------------------|---------------------------------||
|                                                                     |
|                                                                     |
| Bass                                                                |
||---------------------------------|---------------------------------||
||---------------------------------|---------------------------------||
||---------------------------------|---------------------------------||
||-2-2---2-5-5---5-0-0---0-7-7---7-|-2-2---2-5-5---5-0-0---0-7-7---7-||




  Gtr I
||---------------------------------|---------------------------------||
||---------------------------------|---------------------------------||
||-------0-------0-------0-----2-0-|-------0-------0-------0---------||
||-----2-------0-------0-----2-----|-----2-------0-------0-----------||
||---2-------2-------0-----0-------|---2-------2-------0-------------||
||-0-------3-------2---------------|-0-------3-------2---------------||
|                                                                     |
|                        Yeah, Everything's not okay...               |
| Gtr II                                                              |
||---------------------------------|---------------------------xx--xx||
||---------------------------------|---------------------------xx--xx||
||---------------------------------|---------------------------xx--xx||
||---------------------------------|-------------------------7-xx8-xx||
||---------------------------------|-------------------------7-xx8-xx||
||---------------------------------|-------------------------5-xx6-xx||
|                                                                     |
|                                                                     |
| Bass                                                                |
||---------------------------------|---------------------------------||
||---------------------------------|---------------------------------||
||---------------------------------|---------------------------------||
||-2-2---2-5-5---5-0-0---0-7-7---7-|-2-2---2-5-5---5-0-0---12\\------||




  Gtr I
||---------------------------------|---------------------------xx--xx||
||---------------------------------|---------------------------xx--xx||
||-----------------7-7-7-77--------|---------------------------xx--xx||
||-2-2-2-225-5-5-557-7-7-777-7-7-77|-2-2-2-225-5-5-559-9-9-997-xx8-xx||
||-2-2-2-225-5-5-555-5-5-557-7-7-77|-2-2-2-225-5-5-559-9-9-997-xx8-xx||
||-0-0-0-003-3-3-33--------5-5-5-55|-0-0-0-003-3-3-337-7-7-775-xx6-xx||
|                                                                     |
|                                                                     |
| Gtr II                                                              |
||---------------------------------|---------------------------xx--xx||
||---------------------------------|---------------------------xx--xx||
||-----------------7-7-7-77--------|---------------------------xx--xx||
||-2-2-2-225-5-5-557-7-7-777-7-7-77|-2-2-2-225-5-5-559-9-9-997-xx8-xx||
||-2-2-2-225-5-5-555-5-5-557-7-7-77|-2-2-2-225-5-5-559-9-9-997-xx8-xx||
||-0-0-0-003-3-3-33--------5-5-5-55|-0-0-0-003-3-3-337-7-7-775-xx6-xx||
|                                                                     |
|                                                                     |
| Bass                                                                |
||---------------------------------|---------------------------------||
||---------------------------------|---------------------------------||
||---------------------------------|---------------------------------||
||-2-2-2-225-5-5-550-0-0-007-7-7-77|-2-2-2-225-5-5-559-9-9-997---8---||




  Gtr I
||---------------------------------|---------------------------xx--xx||
||---------------------------------|---------------------------xx--xx||
||-----------------7-7-7-77--------|---------------------------xx--xx||
||-2-2-2-225-5-5-557-7-7-777-7-7-77|-2-2-2-225-5-5-559-9-9-997-xx8-xx||
||-2-2-2-225-5-5-555-5-5-557-7-7-77|-2-2-2-225-5-5-559-9-9-997-xx8-xx||
||-0-0-0-003-3-3-33--------5-5-5-55|-0-0-0-003-3-3-337-7-7-775-xx6-xx||
|                                                                     |
|      Today I walked...                 Tried to hold...             |
| Gtr II                                                              |
||---------------------------------|---------------------------------||
||---------------------------------|-------------------------10--11--||
||-----------------7-7-7-77--------|-------------------------12b-13b-||
||-2-2-2-225-5-5-557-7-7-777-7-7-77|-2-2-2-225-5-5-559-9-9-99--------||
||-2-2-2-225-5-5-555-5-5-557-7-7-77|-2-2-2-225-5-5-559-9-9-99--------||
||-0-0-0-003-3-3-33--------5-5-5-55|-0-0-0-003-3-3-337-7-7-77--------||
|                                                                     |
|                                                                     |
| Bass                                                                |
||---------------------------------|---------------------------------||
||---------------------------------|---------------------------------||
||---------------------------------|---------------------------------||
||-2-2-2-225-5-5-550-0-0-007-7-7-77|-2-2-2-225-5-5-559-9-9-997---8---||


Rhythm Guitar I keeps playing the same thing, until told otherwise,
while Guitar II plays the following solo (bar lines are now dividing 
the four beats in a measure)

  Gtr II
||---------------12h15|-12h15p12--12(12)----|--------------------------||
||-12-------12h15-----|---------15--15b17v--|-15b17r15-12--12h15p12--12||
||-14b16--------------|---------------------|------------14--------14--||
||--------------------|---------------------|--------------------------||
||--------------------|---------------------|--------------------------||
||--------------------|---------------------|--------------------------||



||--------------------------|--------------------|---------------------||
||--------------------------|--------------------|---------------------||
||-14b16r14b16r14b16r14-12--|-------12h14-14VV---|-------12h14-14vv----||
||------------------------14|-12h14--------------|-12h14---------------||
||--------------------------|--------------------|---------------------||
||--------------------------|--------------------|---------------------||



||--------------------------|-12h15p12----12-12-----||
||-------------12h15p12--15-|----------15----15b17v-||
||-------12h14---------14---|-----------------------||
||-12h14--------------------|-----------------------||
||--------------------------|-----------------------||
||--------------------------|-----------------------||


Note that the rhythm guitar changes at this point.
  
  Gtr I
||-------------------------x-----x-----x-----x-----||
||-------------------------x-----x-----x-----x-----||
||-------------------------x-----x-----x-----x-----||
||-2-----------2-----------x-----x-----x-----x-----||
||-2-----------2-----------x-----x-----x-----x-----||
||-0-----------0-----------x-----x-----x-----x-----||
|                                                   |
|                                                   |
| Gtr II                                            |
||-17p12h15p12h14p12----12-17p12h15p12h14p12----12-||
||-------------------15----------------------15----||
||-------------------------------------------------||
||-------------------------------------------------||
||-------------------------------------------------||
||-------------------------------------------------||
|                                                   |
|                                                   |
| Bass                                              |
||-------------------------------------------------||
||-------------------------------------------------||
||-------------------------------------------------||
||-2-----------2-----------------------------------||




  Gtr I
||-------------------------x-----x-----x-----x-----||
||-------------------------x-----x-----x-----x-----||
||-------------------------x-----x-----x-----x-----||
||-5-----------5-----------x-----x-----x-----x-----||
||-5-----------5-----------x-----x-----x-----x-----||
||-3-----------3-----------x-----x-----x-----x-----||
|                                                   |
|                                                   |
| Gtr II                                            |
||-17p12h15p12h14p12----12-17p12h15p12h14p12----12-||
||-------------------15----------------------15----||
||-------------------------------------------------||
||-------------------------------------------------||
||-------------------------------------------------||
||-------------------------------------------------||
|                                                   |
|                                                   |
| Bass                                              |
||-------------------------------------------------||
||-------------------------------------------------||
||-------------------------------------------------||
||-5-----------5-----------------------------------||




  Gtr I
||-------------------------x-----x-----x-----x-----||
||-------------------------x-----x-----x-----x-----||
||-7-----------7-----------x-----x-----x-----x-----||
||-7-----------7-----------x-----x-----x-----x-----||
||-5-----------5-----------x-----x-----x-----x-----||
||-------------------------x-----x-----x-----x-----||
|                                                   |
|                                                   |
| Gtr II                                            |
||-17p12h15p12h14p12----12-17p12h15p12h14p12----12-||
||-------------------15----------------------15----||
||-------------------------------------------------||
||-------------------------------------------------||
||-------------------------------------------------||
||-------------------------------------------------||
|                                                   |
|                                                   |
| Bass                                              |
||-------------------------------------------------||
||-------------------------------------------------||
||-------------------------------------------------||
||-0-----------0-----------------------------------||




  Gtr I
||-------------------------x-----x-----x-----x-----||
||-------------------------x-----x-----x-----x-----||
||-------------------------x-----x-----x-----x-----||
||-7-----------7-----------x-----x-----x-----x-----||
||-7-----------7-----------x-----x-----x-----x-----||
||-5-----------5-----------x-----x-----x-----x-----||
|                                                   |
|                                                   |
| Gtr II                                            |
||-17p12h15p12h14p12----12-17p12h15p12h14p12----12-||
||-------------------15----------------------15----||
||-------------------------------------------------||
||-------------------------------------------------||
||-------------------------------------------------||
||-------------------------------------------------||
|                                                   |
|                                                   |
| Bass                                              |
||-------------------------------------------------||
||-------------------------------------------------||
||-------------------------------------------------||
||-7-----------7-----------------------------------||




  Gtr I
||-------------------------x-----x-----x-----x-----||
||-------------------------x-----x-----x-----x-----||
||-------------------------x-----x-----x-----x-----||
||-2-----------2-----------x-----x-----x-----x-----||
||-2-----------2-----------x-----x-----x-----x-----||
||-0-----------0-----------x-----x-----x-----x-----||
|                                                   |
|                                                   |
| Gtr II                                            |
||-17p12h15p12h14p12----12-17p12h15p12h14p12----12-||
||-------------------15----------------------15----||
||-------------------------------------------------||
||-------------------------------------------------||
||-------------------------------------------------||
||-------------------------------------------------||
|                                                   |
|                                                   |
| Bass                                              |
||-------------------------------------------------||
||-------------------------------------------------||
||-------------------------------------------------||
||-2-----------2-----------------------------------||




  Gtr I
||-------------------------x-----x-----x-----x-----||
||-------------------------x-----x-----x-----x-----||
||-------------------------x-----x-----x-----x-----||
||-5-----------5-----------x-----x-----x-----x-----||
||-5-----------5-----------x-----x-----x-----x-----||
||-3-----------3-----------x-----x-----x-----x-----||
|                                                   |
|                                                   |
| Gtr II                                            |
||-17p12h15p12h14p12----12-17p12h15p12h14p12----12-||
||-------------------15----------------------15----||
||-------------------------------------------------||
||-------------------------------------------------||
||-------------------------------------------------||
||-------------------------------------------------||
|                                                   |
|                                                   |
| Bass                                              |
||-------------------------------------------------||
||-------------------------------------------------||
||-------------------------------------------------||
||-5-----------5-----------------------------------||



  Gtr I
||-------------------------x-----x-----x-----x-----||
||-------------------------x-----x-----x-----x-----||
||-------------------------x-----x-----x-----x-----||
||-9-----------9-----------x-----x-----x-----x-----||
||-9-----------9-----------x-----x-----x-----x-----||
||-7-----------7-----------x-----x-----x-----x-----||
|                                                   |
|                                                   |
| Gtr II                                            |
||-19p12h17p12h15p12h14p12-19p12h17p12h15p12-------||
||-------------------------------------------15b17v||
||-------------------------------------------------||
||-------------------------------------------------||
||-------------------------------------------------||
||-------------------------------------------------||
|                                                   |
|                                                   |
| Bass                                              |
||-------------------------------------------------||
||-------------------------------------------------||
||-------------------------------------------------||
||-9-----------9-----------------------------------||



  Gtr I
||-------------x-----x-----------------x-----x-----||
||-------------x-----x-----------------x-----x-----||
||-------------x-----x-----------------x-----x-----||
||-7-----------x-----x-----8-----------x-----x-----||
||-7-----------x-----x-----8-----------x-----x-----||
||-5-----------x-----x-----6-----------x-----x-----||
|                                                   |
|                                                   |
| Gtr II                                            |
||-------------------------------------------------||
||-10----------------------11----------------------||
||-12b14v------------------13b15v------------------||
||-------------------------------------------------||
||-------------------------------------------------||
||-------------------------------------------------||
|                                                   |
|                                                   |
| Bass                                              |
||-------------------------------------------------||
||-------------------------------------------------||
||-------------------------------------------------||
||-7-----------------------8-----------------------||




  Gtr I
||---------------------------------|---------------------------------||
||---------------------------------|---------------------------------||
||---------------------------------|---------------------------------||
||-2-------------------------------|---------------------------------||
||-2-------------------------------|---------------------------------||
||-0-------------------------------|---------------------------------||
|                                                                     |
|                                      Your middle finger...          |
| Gtr II                                                              |
||---------------------------------|---------------------------------||
||-12------------------------------|---------------------------------||
||-14b16vv(hold out)\\-------------|---------------------------------||
||---------------------------------|---------------------------------||
||---------------------------------|---------------------------------||
||---------------------------------|---------------------------------||
|                                                                     |
|                                                                     |
| Bass                                                                |
||---------------------------------|---------------------------------||
||---------------------------------|---------------------------------||
||-----------------5-5-------------|-----------------5-5-------------||
||-2-2-----5-5-------------7-7-----|-2-2-----5-5-------------7-7-----||




  Gtr I
||---------------------------------|---------------------------------||
||---------------------------------|---------------------------------||
||---------------------------------|---------------------------------||
||---------------------------------|---------------------------------||
||---------------------------------|---------------------------------||
||---------------------------------|---------------------------------||
|                                                                     |
|                                      A part of you...               |
| Gtr II                                                              |
||---------------------------------|---------------------------------||
||---------------------------------|---------------------------------||
||---------------------------------|---------------------------------||
||---------------------------------|---------------------------------||
||---------------------------------|---------------------------------||
||---------------------------------|---------------------------------||
|                                                                     |
|                                                                     |
| Bass                                                                |
||---------------------------------|---------------------------------||
||---------------------------------|---------------------------------||
||-----------------5-5-------------|-----------------5-5-------------||
||-2-2-----5-5-------------7-7-----|-2-2-----5-5-------------7-7-----||




 Gtr I
||---------------------------xx--xx|---------------------------------||
||---------------------------xx--xx|---------------------------------||
||---------------------------xx--xx|-----------------7-7-7-77--------||
||-------------------------7-xx8-xx|-2-2-2-225-5-5-557-7-7-777-7-7-77||
||-------------------------7-xx8-xx|-2-2-2-225-5-5-555-5-5-557-7-7-77||
||-------------------------5-xx6-xx|-0-0-0-003-3-3-33--------5-5-5-55||
|                                                                     |
|                                        Today I walked...            |
| Gtr II                                                              |
||---------------------------------|---------------------------------||
||---------------------------------|---------------------------------||
||---------------------------------|-----------------7-7-7-77--------||
||---------------------------------|-2-2-2-225-5-5-557-7-7-777-7-7-77||
||---------------------------------|-2-2-2-225-5-5-555-5-5-557-7-7-77||
||---------------------------------|-0-0-0-003-3-3-33--------5-5-5-55||
|                                                                     |
|                                                                     |
| Bass                                                                |
||---------------------------------|---------------------------------||
||---------------------------------|---------------------------------||
||-----------------5-5-------------|-----------------5-5-5-55--------||
||-2-2-----5-5-------------5---6---|-2-2-2-225-5-5-55--------7-7-7-77||




  Gtr I
||-------------------------------------------------------------------||
||---------------------------------|---------------------------------||
||-----------------7-7-7-77--------|-----------------7-7-7-77--------||
||-2-2-2-225-5-5-557-7-7-777-7-7-77|-2-2-2-225-5-5-557-7-7-777-7-7-77||
||-2-2-2-225-5-5-555-5-5-557-7-7-77|-2-2-2-225-5-5-555-5-5-557-7-7-77||
||-0-0-0-003-3-3-33--------5-5-5-55|-0-0-0-003-3-3-33--------5-5-5-55||
|                                                                     |
|    Tried to hold on...                 They say it's...             |
| Gtr II                                                              |
||-------------------------------------------------------------------||
||---------------------------------|---------------------------------||
||-----------------7-7-7-77--------|-----------------7-7-7-77--------||
||-2-2-2-225-5-5-557-7-7-777-7-7-77|-2-2-2-225-5-5-557-7-7-777-7-7-77||
||-2-2-2-225-5-5-555-5-5-557-7-7-77|-2-2-2-225-5-5-555-5-5-557-7-7-77||
||-0-0-0-003-3-3-33--------5-5-5-55|-0-0-0-003-3-3-33--------5-5-5-55||
|                                                                     |
|                                                                     |
| Bass                                                                |
||---------------------------------|---------------------------------||
||---------------------------------|---------------------------------||
||---------------------------------|---------------------------------||
||-2-2-2-225-5-5-550-0-0-007-7-7-77|-2-2-2-225-5-5-550-0-0-007-7-7-77||




  Gtr I
||-------------------------------------------------------------------||
||---------------------------------|---------------------------------||
||-----------------7-7-7-77--------|-----------------7-7-7-77--------||
||-2-2-2-225-5-5-557-7-7-777-7-7-77|-2-2-2-225-5-5-557-7-7-777-7-7-77||
||-2-2-2-225-5-5-555-5-5-557-7-7-77|-2-2-2-225-5-5-555-5-5-557-7-7-77||
||-0-0-0-003-3-3-33--------5-5-5-55|-0-0-0-003-3-3-33--------5-5-5-55||
|                                                                     |
|      Someday I'll find...                                Yeah,      |
| Gtr II                                                              |
||-------------------------------------------------------------------||
||---------------------------------|--15-----------------------------||
||-----------------7-7-7-77--------|----14-12-14-12-14-12-14-16-14-12||
||-2-2-2-225-5-5-557-7-7-777-7-7-77|---------------------------------||
||-2-2-2-225-5-5-555-5-5-557-7-7-77|---------------------------------||
||-0-0-0-003-3-3-33--------5-5-5-55|---------------------------------||
|                                                                     |
|                                                                     |
| Bass                                                                |
||---------------------------------|---------------------------------||
||---------------------------------|---------------------------------||
||---------------------------------|---------------------------------||
||-2-2-2-225-5-5-550-0-0-007-7-7-77|-2-2-2-225-5-5-550-0-0-007-7-7-77||




  Gtr I
||-------------------------------------------------------------------||
||---------------------------------|---------------------------------||
||-----------------7-7-7-77--------|-----------------7-7-7-77--------||
||-2-2-2-225-5-5-557-7-7-777-7-7-77|-2-2-2-225-5-5-557-7-7-777-7-7-77||
||-2-2-2-225-5-5-555-5-5-557-7-7-77|-2-2-2-225-5-5-555-5-5-557-7-7-77||
||-0-0-0-003-3-3-33--------5-5-5-55|-0-0-0-003-3-3-33--------5-5-5-55||
|                                                                     |
|                        Yeah,                             Yeah,      |
| Gtr II                                                              |
||-------------------------------------------------------------------||
||--15-----------------------------|--15-----------------------------||
||----14-12-14-12-14-12-14-16-14-12|----14-12-14-12-14-12-14-16-14-12||
||14-------------------------------|14-------------------------------||
||---------------------------------|---------------------------------||
||---------------------------------|---------------------------------||
|                                                                     |
|                                                                     |
| Bass                                                                |
||---------------------------------|---------------------------------||
||---------------------------------|---------------------------------||
||---------------------------------|---------------------------------||
||-2-2-2-225-5-5-550-0-0-007-7-7-77|-2-2-2-225-5-5-550-0-0-007-7-7-77||




  Gtr I
||---------------------------xx--xx----------------------------------||
||---------------------------xx--xx|---------------------------------||
||-----------------7-7-7-77--xx--xx|---------------------------------||
||-2-2-2-225-5-5-557-7-7-777-xx8-xx|-2-------------------------------||
||-2-2-2-225-5-5-555-5-5-557-xx8-xx|-2-------------------------------||
||-0-0-0-003-3-3-33--------5-xx6-xx|-0-------------------------------||
|                                                                     |
|                        Yeah,                                        |
| Gtr II                                                              |
||---------------------------------|---------------------------------||
||--15-----------------------------|---------------------------------||
||----14-12-14-12-14--12--14- 15---|-16vv\---------------------------||
||14-------------------------------|---------------------------------||
||---------------------------------|---------------------------------||
||---------------------------------|---------------------------------||
|                                                                     |
|                                                                     |
| Bass                                                                |
||---------------------------------|---------------------------------||
||---------------------------------|---------------------------------||
||---------------------------------|---------------------------------||
||-2-2-2-225-5-5-550-0-0-007---8---|-2-------------------------------||



Those days still seem to pass me by when
Your love, thought of, better ways
I wasted time on you to keep you
Burning, hurting, over again

They say it's easier to turn yourself away
Someday I'll find a better reason not to stay

Yeah, everything's not okay

Took care of everything inside and
Turned the page, it's over
And now I've got myself to blame for
This mess, distress, everything

They say it's easier to turn yourself away
Someday I'll find a better reason not to stay

Yeah, everything's not okay

Today I walked the line it took to let you know
Tried to hold on to you but, you kept letting go

Your middle finger points the blame at
Me, it's easy, to please me, to turn away, walk away
A part of you says it's okay to
Forgive, forget, everything, but everything's not okay

Today I walked the line it took to let you know
Tried to hold on to you but, you kept letting go
They say it's easier to turn yourself away
Someday I'll find a better reason not to stay

Yeah, everything's not okay

Yeah, everything's not okay

Yeah, everything's not okay

Yeah, everything's not okay

            
            
Suggest correction
Creating personal tab
Creating personal tab
You can edit any tab online and save it as your Personal.

You can edit, replace or remove any tab part or add personal notes – all changes will be seen only by you.

Personal tabs can be accessed anytime from any device, even offline.
Learn more »
Give kudos to tab author, rate the tab!
1 2 3 4 5
comments
print report bad tab
guest
You may want to rate the tab now too:
select rating
Wanna post a correction for this tab? Suggest correction