Oops, an error
Loading. Please wait.

All Last Regret - Nothing Personal Tab

4 views 1 this week
no commentswrite comment
1 2 3 4 5
3 more votes to show rating
add to favorites
launch autoscroll
font size
0
reset
how to read this tab
guitar tuner
Autoscroll
slow
fast
+/-
esc
set tempo
stop
Help us to improve Ultimate-Guitar.com Take our survey!
×
Author
Difficulty
intermediate
About this tab version
This is an original song I've written for my band All Last Regret, just put it up here so you guys can hear what it sounds like. Was this info helpful? Yes No
[Intro] Guitar one x6

e|---------------------------------------------------------------------------|
B|---------------------------------------------------------------------------|
G|---------------------------------------------------------------------------|
D|10-10-10-10-10-10-10-10-8-8-8-8-8-8-8-8-10-10-10-10-10-10-10-10-6-6-6-6-6-6|
A|---------------------------------------------------------------------------|
E|---------------------------------------------------------------------------|

e|---------------------------------------------------------------------------|
B|---------------------------------------------------------------------------|
G|---------------------------------------------------------------------------|
D|6-6------------------------------------------------------------------------|
A|---------------------------------------------------------------------------|
E|---------------------------------------------------------------------------|

[Intro] Guitar two x4

e|---------------------------------------------------------------------------|
B|---------------------------------------------------------------------------|
G|---------------------------------------------------------------------------|
D|8-8-8-8-8-8-8-8--10-10-10-10-10-10-10-10--5-5-5-5-5-5-5-5--5-5-5-5-5--6----|
A|8-8-8-8-8-8-8-8--10-10-10-10-10-10-10-10--5-5-5-5-5-5-5-5--5-5-5-5-5--6----|
E|6-6-6-6-6-6-6-6---8--8--8--8--8--8--8--8--3-3-3-3-3-3-3-3--3-3-3-3-3--4----|



[Verse] Guitar one x4

e|---------------------------------------------------------------------------|
B|---------------------------------------------------------------------------|
G|---------------------------------------------------------------------------|
D|4-4--8-8--2-2--8-8---------------------------------------------------------|
A|4-4--8-8--2-2--8-8---------------------------------------------------------|
E|2-2--6-6--0-0--6-6---------------------------------------------------------|
[Verse} Guitar two x2
e|---------------------------------------------------------------------------|
B|---------------------------------------------------------------------------|
G|---------------------------------------------------------------------------|
D|---------------------------------------------------------------------------|
A|4-4-4-4-4-4-4-4--8-8-8-8-8-8-8-8--2-2-2-2-2-2-2-2--8-8-8-8-8-8-8-8---------|
E|2-2-2-2-2-2-2-2--6-6-6-6-6-6-6-6--0-0-0-0-0-0-0-0--6-6-6-6-6-6-6-6---------|


[Chorus]x2

e|---------------------------------------------------------------------------|
B|---------------------------------------------------------------------------|
G|-----------------5-5-5-5-5-5-5-5-------------------------------------------|
D|3-3-3-3-3-3-3-3--5-5-5-5-5-5-5-5--5-5-5-5-5-5-5-5--7-7-7-7-7-7-7-7---------|
A|3-3-3-3-3-3-3-3--3-3-3-3-3-3-3-3--3-3-3-3-3-3-3-3--5-5-5-5-5-5-5-5---------|
E|1-1-1-1-1-1-1-1-------------------3-3-3-3-3-3-3-3--5-5-5-5-5-5-5-5---------|

e|---------------------------------------------------------------------------|
B|---------------------------------------------------------------------------|
G|-----------------5-5-5-5-5-5-5-5-------------------------------------------|
D|3-3-3-3-3-3-3-3--5-5-5-5-5-5-5-5--5-5-5-5-5-5-5-5--7-7-7-7-7-7-7-7---------|
A|3-3-3-3-3-3-3-3--3-3-3-3-3-3-3-3--3-3-3-3-3-3-3-3--5-5-5-5-5-5-5-5---------|
E|1-1-1-1-1-1-1-1-------------------3-3-3-3-3-3-3-3--5-5-5-5-5-5-5-5---------|
                                   |------pm-------|      

[Bridge] x1
e|---------------------------------------------------------------------------|
B|---------------------------------------------------------------------------|
G|-----------------5-5-5-5-5-5-5-5-------------------------------------------|
D|3-3-3-3-3-3-3-3--5-5-5-5-5-5-5-5--5-5-5-5-5-5-5-5--7-7-7-7-7-7-7-7---------|
A|3-3-3-3-3-3-3-3--3-3-3-3-3-3-3-3--3-3-3-3-3-3-3-3--5-5-5-5-5-5-5-5---------|
E|1-1-1-1-1-1-1-1-------------------3-3-3-3-3-3-3-3--5-5-5-5-5-5-5-5---------|

e|---------------------------------------------------------------------------|
B|---------------------------------------------------------------------------|
G|-----------------5-5-5-5-5-5-5-5-------------------------------------------|
D|3-3-3-3-3-3-3-3--5-5-5-5-5-5-5-5--5-5-5-5-5-5-5-5--7-7-7-7-7-7-7-7---------|
A|3-3-3-3-3-3-3-3--3-3-3-3-3-3-3-3--3-3-3-3-3-3-3-3--5-5-5-5-5-5-5-5---------|
E|1-1-1-1-1-1-1-1-------------------3-3-3-3-3-3-3-3--5-5-5-5-5-5-5-5---------|

************************************

| pm  palm mute

************************************
Suggest correction
Give kudos to tab author, rate the tab!
1 2 3 4 5
comments
print report bad tab
guest
You may want to rate the tab now too:
select rating
Wanna post a correction for this tab? Suggest correction