Oops, an error
Loading. Please wait.

Alliance 49 - Freaked Out Bass Tab

80 views 1 this week
no commentswrite comment
1 2 3 4 5
3 more votes to show rating
add to favorites
launch autoscroll
font size
0
reset
guitar tuner
Autoscroll
slow
fast
+/-
esc
set tempo
stop
Help us to improve Ultimate-Guitar.com Take our survey!
×
Author
im going to change this soon after i get the tabs from our bass player


intro

G|-------------------|X8
D|-------------------|
A|-------------------|
E|--333-4-4-5-5-4-4--|

verse

G|-------------------------------------------------------|
D|-------------------------------------------------------|
A|-5-5-3---------------------------------3-3-3-3-5-5-5-5-|
E|-------333-3-3-555-5-5-333-3-3-555-5-5-----------------|

chorus

G|---------------------------------------------------|
D|---------------------------------------------------|
A|---------------------------------------------------|
E|--5-3--3-3-3-5-3-5-33-5-3-5-5-5-7-5-7-55-7--5-3----|

G|---------------------------------------------------|
D|---------------------------------------------------|
A|---------------------------------------------------|
E|--3-3-3-5-3-5-33-5-5-5-7-3--5-3--3-3-3-5-3-5-33-5-3|

G|----------------------------------------|
D|----------------------------------------|
A|----------------------------------------|
E|--5-5-5-7-5-7-55-7-5-7-5-3--------------|

verse 2

G|--------------------------------------------------------|
D|--------------------------------------------------------|
A|------------------5-5-3-----------------3-3-3-3-5-5-5-5-|
E|--333-3-3-555-5-5-------333-3-3-555-5-5-----------------|

chorus

G|---------------------------------------------------|
D|---------------------------------------------------|
A|---------------------------------------------------|
E|--5-3--3-3-3-5-3-5-33-5-3-5-5-5-7-5-7-55-7--5-3----|

G|---------------------------------------------------|
D|---------------------------------------------------|
A|---------------------------------------------------|
E|--3-3-3-5-3-5-33-5-5-5-7-3--5-3--3-3-3-5-3-5-33-5-3|

G|----------------------------------------|
D|----------------------------------------|
A|----------------------------------------|
E|--5-5-5-7-5-7-55-7-5-7-5-3--------------|

intro

G|-------------------|X8
D|-------------------|
A|-------------------|
E|--333-4-4-5-5-4-4--|

drum solo

music

G|---------------------------------------------------------------|
D|---------------------------------------------------------------|
A|---------------------------------------------------------------|
E|--3xx3xxxx3x3xx5xx5xxxx5x5xx3xx3xxxx3x3xx5xx5xxxx5x5xx-3-5-3-7-|

chorus

G|---------------------------------------------------|
D|---------------------------------------------------|
A|---------------------------------------------------|
E|--5-3--3-3-3-5-3-5-33-5-3-5-5-5-7-5-7-55-7--5-3----|

G|---------------------------------------------------|
D|---------------------------------------------------|
A|---------------------------------------------------|
E|--3-3-3-5-3-5-33-5-5-5-7-3--5-3--3-3-3-5-3-5-33-5-3|

G|----------------------------------------|
D|----------------------------------------|
A|----------------------------------------|
E|--5-5-5-7-5-7-55-7-5-7-5-3--------------|
Suggest correction
Give kudos to tab author, rate the tab!
1 2 3 4 5
comments
print report bad tab
guest
You may want to rate the tab now too:
select rating
Wanna post a correction for this tab? Suggest correction