Oops, an error
Loading. Please wait.

Alter Egon - Varfor Dor Ni Tab

165 views 1 this week
no commentswrite comment
1 2 3 4 5
please rate
add to favorites
launch autoscroll
font size
0
reset
how to read this tab
guitar tuner
Autoscroll
slow
fast
+/-
esc
set tempo
stop
Help us to improve Ultimate-Guitar.com Take our survey!
×
Author
Varför dör ni - Alter egon (Peter London)

Studio: Standard Tuning/ E

Live: D tuning/ 1 step down/ DGCFAD (only played live at the RIS festival)


Intro:

E---------------------------------|
B---------------------------------|
G---9--9---12-12----------12-12---|
D---9--9---12-12---10-10--12-12---|
A---7--7---10-10---10-10--10-10---|
E------------------8--8-----------|

E-------------------------------|
B-------------------------------|
G---9--9---12-12----------------|
D---9--9---12-12---10-10--7-7---|
A---7--7---10-10---10-10--7-7---|
E------------------8--8---5-5---|


Verse:

Jag hade ingen annan att vända mig till så jag vandrade själv i början av mitt liv
E-----------------------------------------------------------------------------------|
B-----------------------------------------------------------------------------------|
G--------------------------------7--7--7--5--5--5--5--5--5--5--5--5--5--5--9--9--9--|
D--2--2--2--2--2--2--2--2--2--2--5--5--5--5--5--5--5--5--5--5--5--5--5--5--7--7--7--|
A--2--2--2--2--2--2--2--2--2--2-----------3--3--3--3--3--3--3--3--3--3--3-----------|
E--0--0--0--0--0--0--0--0--0--0-----------------------------------------------------|

Det dröjde inte länge innan jag kom på att musik är mitt liv, det är bara så
E-----------------------------------------------------------------------------------|
B-----------------------------------------------------------------------------------|
G--------------------------------7--7--7--5--5--5--5--5--5--5--5--5--5--5--9--9--9--|
D--2--2--2--2--2--2--2--2--2--2--5--5--5--5--5--5--5--5--5--5--5--5--5--5--7--7--7--|
A--2--2--2--2--2--2--2--2--2--2-----------3--3--3--3--3--3--3--3--3--3--3-----------|
E--0--0--0--0--0--0--0--0--0--0-----------------------------------------------------|


Chorus:

Thore skogman man lever och man dör
E---------------------------------|
B---------------------------------|
G---9--9---12-12----------12-12---|
D---9--9---12-12---10-10--12-12---|
A---7--7---10-10---10-10--10-10---|
E------------------8--8-----------|

David Hellman man skapar och förstör
E------------------------------|
B------------------------------|
G----9--9---12-12--------------|
D----9--9---12-12--10-10-7-7---|
A----7--7---10-10--10-10-7-7---|
E------------------8--8--5-5---|
Suggest correction
Give kudos to tab author, rate the tab!
1 2 3 4 5
comments
print report bad tab
guest
You may want to rate the tab now too:
select rating
Please do not post tabs as comments. Select "correction" instead!