Oops, an error
Loading. Please wait.

American Princes - Auditorium chords

145 views 15 this week
1 commentread comment
1 2 3 4 5
1 last vote to show rating
add to favorites
×
Save as Personal and add changes to this tab that will be seen only by you. Learn more ›
×
You can save this tab as Personal to edit and correct it or add notes. All changes will be seen only by you. Learn more »
launch autoscroll
font size
0
reset
transpose
0
reset
display chords
guitar tuner
edit
Autoscroll
slow
fast
+/-
esc
set tempo
stop
Author
Difficulty
intermediate
Strumming
There is no strumming pattern for this song yet. and get +5 IQ
[Intro]

         F#m                                 A
e|----------------------------------------------------------------------|
B|----------------------------------------------------------------------|
G|----------------------------------------------------------------------|
D|----------------------------------------------------------------------|
A|-----------3h4------3h4------3h4------3h4------3h4------3h4------3h4--|
E|--9\2--2-2------2-2------2-2------2-2------5-5------5-5------5-5------|


      E
e|---------------------------------------|
B|---------------------------------------|
G|---------------------------------------| x2
D|---------------------------------------|
A|------3h4------3h4------3h4------3h4---|
E|-0-0------0-0------0-0------0-0--------|

[Verse]
F#m             A
Love don't mean nothing
           E
Don't mean nothing

F#m              A
You won't feel a thing
           E
Won't feel nothing

[Chorus]
F#m              A                    E
Ooh, you put 'em on below the auditorium
F#m                  A                     E
Ooh, they've seen it all below the auditorium

[Verse]
F#m             A
Love don't mean nothing
           E
Don't mean nothing

F#m            A
You won't feel a thing
               E
You won't feel nothing

[Chorus]
F#m              A                    E
Ooh, you put 'em on below the auditorium
F#m                  A                     E
Ooh, they've seen it all below the auditorium

[Instrumental]

    F#m          A             E                              F#m
e|--------------------------------------------------------------------|
B|------4/5-7---------4/5-9-------12-12-10-9-10--12-12-10-9-9\7-------|
G|--------------------------------------------------------------------|
D|--------------------------------------------------------------------|
A|---------------0----------------------------------------------------|
E|--2--------------------------0--------------------------------------|


    A                              E
e|-----------------------------7------------------------------12------|
B|--9-10-9-10-9-10-9-10-9-10-9---9-9-10-9-10-9-10-9-10-9-10-9----9-7~-|
G|--------------------------------------------------------------------|
D|--------------------------------------------------------------------|
A|--------------------------------------------------------------------|
E|--------------------------------------------------------------------|

[Chorus]
F#m              A                    E
Ooh, you put 'em on below the auditorium
F#m                  A                     E
Ooh, they've seen it all below the auditorium

[Verse]
F#m             A
Love don't mean nothing
           E
Don't mean nothing

F#m            A
You won't feel a thing
               E
You won't feel nothing

[Outro]
F#m     A       E     E  D A E
Ooooooh Ooooooh oooh

#####################################

| /   Slide up
| \   Slide down
| h   hammer on
| ~   vibrato

#####################################

            
            
Suggest correction
Creating personal tab
Creating personal tab
You can edit any tab online and save it as your Personal.

You can edit, replace or remove any tab part or add personal notes – all changes will be seen only by you.

Personal tabs can be accessed anytime from any device, even offline.
Learn more »
Give kudos to tab author, rate the tab!
1 2 3 4 5
comments
print report bad tab
1 comment total.
+1 reply
dclyde747 10 Jul 29, 2017 03:55 PM

Sweet! Thanks for being the only tab

guest
You may want to rate the tab now too:
select rating
Wanna post a correction for this tab? Suggest correction