Oops, an error
Loading. Please wait.

Among Them - Fire Away Bass Tab

95 views 1 this week
no commentswrite comment
1 2 3 4 5
3 more votes to show rating
add to favorites
launch autoscroll
font size
0
reset
guitar tuner
Autoscroll
slow
fast
+/-
esc
set tempo
stop
Help us to improve Ultimate-Guitar.com Take our survey!
×
Author
Difficulty
novice
Intro

G ]----------------------------------------[
D ]-1------4-3-----------------------------[ x2
A ]------------2-------4---2-4--2----------[
E ]----------------------------------------[

G ]----------------3-4----6---4-6-4--------[
D ]-1----4---3-4-3-------------------------[
A ]----------------------------------------[
E ]----------------------------------------[

G ]-8---11-10-4-6---4-6-4------------------[
D ]----------------------------------------[
A ]----------------------------------------[
E ]----------------------------------------[


Verse 1
x6
G ]------------------------------------[
D ]--1---1-1-1-1-1-1-1-1-1-1-1-1-1-----[
A ]--------------------------------2---[
E ]------------------------------------[

G ]------------------------------------[
D ]------------------------------------[
A ]----2-2-2-2-2-2-4---4-4-4-4-4-4-----[
E ]------------------------------------[

Verse 2
x3
G ]------------------------------------[
D ]------------------------------------[
A ]--2---2-2-2-2-2-2-2-2-2-2-2-2-2-----[
E ]------------------------------------[

G ]------------------------------------[
D ]------------------------------------[
A ]-------------------------1---2------[
E ]-0------2------3--------------------[

Chorus 1
x4
G ]------------------------------------[
D ]------------------------------------[
A ]------------------------------------[
E ]--0---0-0-0----0-0-0-0-0-0-0-0-0----[

G ]------------------------------------[
D ]-4------3---------------------------[
A ]-----------------4--------1---------[
E ]------------------------------------[

Verse 3
G ]------------------------------------[
D ]------------------------------------[
A ]--2-2-2-2-2-2-2-2-2-2-2-2-2-2-2-2---[
E ]------------------------------------[
                                          x2
G ]------------------------------------[
D ]------------------------------------[
A ]--6-6-6-6-6-6-6-6-6-6-6-6-6-6-6-6---[
E ]------------------------------------[

G ]------------------------------------[
D ]------------------------------------[
A ]--2-2-2-2-2-2-2-2-2-2-2-2-2-2-2-2---[
E ]------------------------------------[

G ]------------------------------------[
D ]------------------------------------[
A ]------------------------------------[
E ]--0-0-0-0-0-0-0-0-0-0-0-0-0-0-0-0---[

G ]------------------------------------[
D ]------------------------------------[
A ]--2-2-2-2-2-2-2-2-2-2-2-2-2-2-2-2---[
E ]------------------------------------[

G ]------------------------------------[
D ]------------------------------------[
A ]--4-4-4-4-4-4-4-4-4-4-4-4-4-4-4-4---[
E ]------------------------------------[

Verse 4
x4
G ]------------------------------------[
D ]------------------------------------[
A ]------------------------1-----------[
E ]-0-----2--------3-------------------[

G ]------------------------------------[
D ]------------------------------------[
A ]--2-2-2-2-2-2-2-2-2-2-2-2-2-2-2-2---[
E ]------------------------------------[

Chrorus 2
x4
G ]------------------------------------[
D ]------------------------------------[
A ]------------------------------------[
E ]--0---0-0-0----0-0-0-0-0-0-0-0-0----[

G ]------------------------------------[
D ]-4------3---------------------------[
A ]-----------------4--------1---------[
E ]------------------------------------[

Bridge/Outro

G ]------------------------------------[
D ]------------------------------------[
A ]------------------------------------[
E ]----2----------------4--------------[
x8
G ]------------------------------------[
D ]--1---1-1-1-1-1-1-1-1-1-1-1-1-1-----[
A ]--------------------------------2---[
E ]------------------------------------[

G ]------------------------------------[
D ]------------------------------------[
A ]----2-2-2-2-2-2-4---4-4-4-4-4-4-----[
E ]------------------------------------[

G ]------------------------------------[
D ]--1---------------------------------[
A ]------------------------------------[
E ]------------------------------------[
Suggest correction
Give kudos to tab author, rate the tab!
1 2 3 4 5
comments
print report bad tab
guest
You may want to rate the tab now too:
select rating
Wanna post a correction for this tab? Suggest correction