Oops, an error
Loading. Please wait.

Amp Abuse - Jam Sesh 1 Bass Tab

74 views 3 this week
no commentswrite comment
1 2 3 4 5
please rate
add to favorites
launch autoscroll
font size
0
reset
guitar tuner
Tab Pro tools
  • play this tab
  • loop segment
  • change instrument
  • show fretboard
  • metronome
Autoscroll
slow
fast
+/-
esc
set tempo
stop
Contributor
Difficulty
Tuning
intermediate
D A D G B E
Notes; Slap notes hard with thumb on Intro, Verse and Chorus
       h = hammer on
       ~ = hold note
       / = slide
       x = silent/ghost note

:Intro:

|--------|
|--------|
|--------|
|-4-4-0~-|

:Main/Verse Riff:

|-----------------------------|
|-----------------------------|
|-----------------------------|
|-4-4-44-00-0-0-7-7-77-99-9-9-|

:Chorus Riff:

|----------------------------------|
|----------------------------------|
|----------------------------------|
|-/12-12-1212-77-7-7-7h9-9-99-44-4-|

:Solo:

|------2h4-4-4-44-2/6-6666666-9-6-9-6-9-|
|---2h4---------------------------------|
|---------------------------------------|
|-4-------------------------------------|

|-11-11-11-9h11-9--9h11-|
|----------------11-----|    { Repeat x4 }
|-----------------------|    
|-----------------------|

|-11-11-9-6-6-2-4-4-2h4-2h4-2h4-2------|
|---------------------------------2-4~-|
|--------------------------------------|
|--------------------------------------|

:Slow Part:

|-6-6-66-x-2-2-22-/-9-9-99-x-11-11-1111-|
|-4-4-44-x-0-0-00-/-7-7-77-x-9--9--9--9-|    { Repeat x2 }
|---------------------------------------|
|---------------------------------------|

{ Repeat Verse }
{ Repeat Chorus }

|-----|
|-----|
|-----|
|-4~--|

{ Drum Solo }
{ Repeat Slow Part }

|-----------------------------|
|-----------------------------|    { Slow, using fingers }
|-----------------------------|
|-4-4-44-00-0-0-7-7-77-99-9-9-|

|-----|
|-----|
|-----|
|-4~--|


You can find this song, and contact me at www.myspace.com/ampabuse
comments
We did not receive enough feedback on this tab! Please rate:
print report bad tab
1 2 3 4 5
I want to post or [tab]
guest
You may want to rate the tab now too:
select rating
Please do not post tabs as comments. Select "correction" instead!