Oops, an error
Loading. Please wait.

Anakbayan - Pagbabalik Ng Kwago Bass Tab

501 views 3 this week
no commentswrite comment
1 2 3 4 5
3 more votes to show rating
add to favorites
launch autoscroll
font size
0
reset
guitar tuner
Autoscroll
slow
fast
+/-
esc
set tempo
stop
Help us to improve Ultimate-Guitar.com Take our survey!
×
Author
. . . para sa BEATLOGS!

Intro Pattern: Rest 3 bars, then

G|-----------------|
D|-----------------|
A|-----------------|
E|-0-5-00-5-0-5-00-| repeat 14 bars

Verse 1 pattern:

Nagbalik ang kwago
G|----------12-12h14-|
D|-------------------|
A|-------------------|
E|-0-3-0-5-----------|

ang gwardya sa gabi
G|---------14/--------|
D|--------------14\12-|
A|--------------------|
E|-0-3-0-0------------|

Sasamahan tayo
G|----------12-12h14-|
D|-------------------|
A|-------------------|
E|-0-3-0-5-----------|

kahit madilim
G|---------14/--------|
D|--------------14\12-|
A|--------------------|
E|-0-3-0-0------------|

Magbibigay liwanag,
G|----------12-12h14-|
D|-------------------|
A|-------------------|
E|-0-3-0-5-----------|

ang kanyang mga mata
G|---------14/--------|
D|--------------14\12-|
A|--------------------|
E|-0-3-0-0------------|

At lilipad tayo,
G|----------12-12h14-|
D|-------------------|
A|-------------------|
E|-0-3-0-5-----------|

sa mundo
G|---------5/-|
D|------------|
A|------------|
E|-0-3-0-0----|

Pre-Chorus pattern: Do Intro Pattern (excluding rest) 4x

Chorus pattern:

G|---------------------|
D|---------------------|
A|---------------------|
E|-77-7-77-7-55-5-55-5-| 4x

Pre-Verse:  Do Intro Pattern 10x

Verse 2: Do Verse 1 pattern

Pre-Chorus: Do Pre-Chorus pattern

Chorus: Do Chorus pattern

Adlib:  Do Intro pattern (excluding rest)12x

Chorus: Do Chorus pattern

Outro:  Do Intro pattern (excluding rest) 20x, to fade out
Suggest correction
Give kudos to tab author, rate the tab!
1 2 3 4 5
comments
print report bad tab
guest
You may want to rate the tab now too:
select rating
Wanna post a correction for this tab? Suggest correction