Oops, an error
Loading. Please wait.

Anarchy Christ - Dead Go Marching Bass Tab

81 views 1 this week
no commentswrite comment
1 2 3 4 5
please rate
add to favorites
launch autoscroll
font size
0
reset
guitar tuner
Autoscroll
slow
fast
+/-
esc
set tempo
stop
Help us to improve Ultimate-Guitar.com Take our survey!
×
Author
Difficulty
G|---------------------------|
D|---------------------------|
A|---0-0-0-0-2-3-2-3-0-------|
E|-0-------------------3-0-3-|

G|---------------------------|
D|-------------------0-2---2-|
A|---0-0-0-0-2-3-2-3-----3---|
E|-0-------------------------|

G|-----------------------------------------------------------------|
D|---2-2-2-2-0---0-0-0-----------------------0-2-0-----------------|
A|-3-----------3-------2-3-3-3-3-2-0-2-2-2-3-------3-2---0-0-0---0-|
E|-----------------------------------------------------0-------0---|


G|---------------------------|
D|---------------------------|
A|---0-0-0-0-2-3-2-3-0-------|
E|-0-------------------3-0-3-|

G|---------------------------|
D|-------------------0-2---2-|
A|---0-0-0-0-2-3-2-3-----3---|
E|-0-------------------------|

G|-----------------------------------------------------------------|
D|---2-2-2-2-0---0-0-0-----------------------0-2-0-----------------|
A|-3-----------3-------2-3-3-3-3-2-0-2-2-2-3-------3-2---0-0-0---0-|
E|-----------------------------------------------------0-------0---|

G|---------------------------|
D|---------------------------|
A|---0-0-0-0-2-3-2-3-0-------|
E|-0-------------------3-0-3-|

G|---------------------------|
D|-------------------0-2---2-|
A|---0-0-0-0-2-3-2-3-----3---|
E|-0-------------------------|

G|-----------------------------------------------------------------|
D|---2-2-2-2-0---0-0-0-----------------------0-2-0-----------------|
A|-3-----------3-------2-3-3-3-3-2-0-2-2-2-3-------3-2---0-0-0---0-|
E|-----------------------------------------------------0-------0---|

G|---------------------------|
D|---------------------------|
A|---0-0-0-0-2-3-2-3-0-------|
E|-0-------------------3-0-3-|

G|---------------------------|
D|-------------------0-2---2-|
A|---0-0-0-0-2-3-2-3-----3---|
E|-0-------------------------|

G|-----------------------------------------------------------------|
D|---2-2-2-2-0---0-0-0-----------------------0-2-0-----------------|
A|-3-----------3-------2-3-3-3-3-2-0-2-2-2-3-------3-2---0-0-0---0-|
E|-----------------------------------------------------0-------0---|

G|---------------------------|
D|---------------------------|
A|---0-0-0-0-2-3-2-3-0-------|
E|-0-------------------3-0-3-|

G|---------------------------|
D|-------------------0-2---2-|
A|---0-0-0-0-2-3-2-3-----3---|
E|-0-------------------------|

G|-----------------------------------------------------------------|
D|---2-2-2-2-0---0-0-0-----------------------0-2-0-----------------|
A|-3-----------3-------2-3-3-3-3-2-0-2-2-2-3-------3-2---0-0-0---0-|
E|-----------------------------------------------------0-------0---|

G|---------------------------|
D|---------------------------|
A|---0-0-0-0-2-3-2-3-0-------|
E|-0-------------------3-0-3-|

G|---------------------------|
D|-------------------0-2---2-|
A|---0-0-0-0-2-3-2-3-----3---|
E|-0-------------------------|

G|-----------------------------------------------------------------|
D|---2-2-2-2-0---0-0-0-----------------------0-2-0-----------------|
A|-3-----------3-------2-3-3-3-3-2-0-2-2-2-3-------3-2---0-0-0---0-|
E|-----------------------------------------------------0-------0---|

G|---------------------------|
D|---------------------------|
A|---0-0-0-0-2-3-2-3-0-------|
E|-0-------------------3-0-3-|

G|---------------------------|
D|-------------------0-2---2-|
A|---0-0-0-0-2-3-2-3-----3---|
E|-0-------------------------|

G|-----------------------------------------------------------------|
D|---2-2-2-2-0---0-0-0-----------------------0-2-0-----------------|
A|-3-----------3-------2-3-3-3-3-2-0-2-2-2-3-------3-2---0-0-0---0-|
E|-----------------------------------------------------0-------0---|

G|---------------------------|
D|---------------------------|
A|---0-0-0-0-2-3-2-3-0-------|
E|-0-------------------3-0-3-|

G|---------------------------|
D|-------------------0-2---2-|
A|---0-0-0-0-2-3-2-3-----3---|
E|-0-------------------------|

G|-----------------------------------------------------------------|
D|---2-2-2-2-0---0-0-0-----------------------0-2-0-----------------|
A|-3-----------3-------2-3-3-3-3-2-0-2-2-2-3-------3-2---0-0-0---0-|
E|-----------------------------------------------------0-------0---|

G|---------------------------|
D|---------------------------|
A|---0-0-0-0-2-3-2-3-0-------|
E|-0-------------------3-0-3-|

G|---------------------------|
D|-------------------0-2---2-|
A|---0-0-0-0-2-3-2-3-----3---|
E|-0-------------------------|

G|-----------------------------------------------------------------|
D|---2-2-2-2-0---0-0-0-----------------------0-2-0-----------------|
A|-3-----------3-------2-3-3-3-3-2-0-2-2-2-3-------3-2---0-0-0---0-|
E|-----------------------------------------------------0-------0---|

G|---------------------------|
D|---------------------------|
A|---0-0-0-0-2-3-2-3-0-------|
E|-0-------------------3-0-3-|

G|---------------------------|
D|-------------------0-2---2-|
A|---0-0-0-0-2-3-2-3-----3---|
E|-0-------------------------|

G|-----------------------------------------------------------------|
D|---2-2-2-2-0---0-0-0-----------------------0-2-0-----------------|
A|-3-----------3-------2-3-3-3-3-2-0-2-2-2-3-------3-2---0-0-0---0-|
E|-----------------------------------------------------0-------0---|

G|---------------------------|
D|---------------------------|
A|---0-0-0-0-2-3-2-3-0-------|
E|-0-------------------3-0-3-|

G|---------------------------|
D|-------------------0-2---2-|
A|---0-0-0-0-2-3-2-3-----3---|
E|-0-------------------------|

G|-----------------------------------------------------------------|
D|---2-2-2-2-0---0-0-0-----------------------0-2-0-----------------|
A|-3-----------3-------2-3-3-3-3-2-0-2-2-2-3-------3-2---0-0-0---0-|
E|-----------------------------------------------------0-------0---|
Suggest correction
Give kudos to tab author, rate the tab!
1 2 3 4 5
comments
print report bad tab
guest
You may want to rate the tab now too:
select rating
Please do not post tabs as comments. Select "correction" instead!