Oops, an error
Loading. Please wait.

Anatomy Of A Bear - The Comeback Kid Bass Tab

172 views 3 this week
no commentswrite comment
1 2 3 4 5
please rate
add to favorites
launch autoscroll
font size
0
reset
guitar tuner
Autoscroll
slow
fast
+/-
esc
set tempo
stop
Help us to improve Ultimate-Guitar.com Take our survey!
×
Author
Difficulty
novice
-------------------------------------------------------------------------------
			     THE COMEBACK KID - Anatomy Of A Bear
-------------------------------------------------------------------------------

Tabbed By : Dylan Block & Jim Millan
e-mail: aggiesrule100@sbcglobal.net

Tuning: EADG (standard)

KEY:
| /  slide up
| h  hammer-on
| p  pull-off

PART 1
G|-----------------------------------|
D|---------4-------------------------|
A|-----4-h5---5-p4-------2-------4---|
E|-7-7-------------5-3-3---3-5-5---5-|

PART 2
G|----------------------|
D|----------------------|
A|----------------------|
E|-7-7--3-3--0-0----2/5-|

PART 1

PART 3
G|---------------------------------|
D|---------------------------------|
A|---------------------------------|
E|-7-7-7-7-5-5-5-5-3-3-3-3-2-2-2-2-|

PART 1

PART 4
G|---------------------------------|
D|---------------------------------|
A|-----------------7-7-7-7---------|
E|-7-7-7-7-5-5-5-5---------5-5-5-5-|

I know that these tabs are 100% correct because I wrote the bass part to the song. I 
a basic outline of when to play each part in case anyone wanted to know. You will have to 
out how many times to play each section, but it is very easy.

===============================================================================
Suggest correction
Give kudos to tab author, rate the tab!
1 2 3 4 5
comments
print report bad tab
guest
You may want to rate the tab now too:
select rating
Wanna post a correction for this tab? Suggest correction