Oops, an error
Loading. Please wait.

Anavae - Idle Minds Bass Tab

1,150 views 1 this week
1 commentread comment
1 2 3 4 5
please rate
add to favorites
launch autoscroll
font size
0
reset
guitar tuner
Tab Pro tools
  • play this tab
  • loop segment
  • change instrument
  • show fretboard
  • metronome
×
Best way to learn
"Anavae - Idle Minds"
Autoscroll
slow
fast
+/-
esc
set tempo
stop
Contributor
Tuning
D A D G B E
-------------------------------------------------------------------------------
			     IDLE MINDS - Anavae
-------------------------------------------------------------------------------
Tabbed by: James Pearce
Email: Jamespearce87@gmail.com

Tuning: D a d g b e
Putting this up due to a few requests...
Rhythm won't be shown nor will the number of times notes played but can be easily 
heard in the song

Intro

e|---------------------------------------------------------------------------|
B|---------------------------------------------------------------------------|
G|---------------------------------------------------------------------------| 
D|---------------------------------------------------------------------------| x 2
A|---------------------------------------------------------------------------|
D|---7-7-7-77----7-7-7-77----3-3-3-33----5-5-5-55----------------------------|

e|---------------------------------------------------------------------------|
B|---------------------------------------------------------------------------|
G|---------------------------------------------------------------------------|
D|---------------------------------------------------------------------------|
A|---------------------------------------------------------------------------|
D|---5-6-7-7-7-7-7-7-7-7-7-9-9-10-10-3-3-3-3-3-5-3-0-0-0-3-3-3---------------|

verse

e|---------------------------------------------------------------------------|
B|---------------------------------------------------------------------------|
G|---------------------------------------------------------------------------|
D|---------------------------------------------------------------------------|
A|---------------------------------------------------------------------------|
D|---7-7-7-7-7-7-7-7-7-7-7-9-9-10-10-3-3-3-3-3-5-3-0-0-0-3-3-3---------------|

e|---------------------------------------------------------------------------|
B|---------------------------------------------------------------------------|
G|---------------------------------------------------------------------------|
D|------------------------------------------------5-3------------------------|
A|---------------------------------------------------------------------------|
E|---7-7\\\----7-7\\\----3-3\\\----0-0-0-3-3-3-3------7-10-7--000-3-5-0-0-0--|

Chorus

e|---------------------------------------------------------------------------|
B|---------------------------------------------------------------------------|
G|---------------------------------------------------------------------------|
D|---------------------------------------------------------------------------|
A|---------------------------------------------------------------------------|
E|---3-3-//-10-12-12-12\\-7-7-7-7-7-3-3-0-0-10-10-10-12-12-12-7-7-7----------|

e|---------------------------------------------------------------------------|
B|---------------------------------------------------------------------------|
G|---------------------------------------------------------------------------|
D|---------------------------------------------------------------------------|
A|---------------------------------------------------------------------------|
E|---3-3-//-10-12-12-12\\-7-7-7-7-7-3-3-3-5----------------------------------|

Post Chorus

e|---------------------------------------------------------------------------|
B|---------------------------------------------------------------------------|
G|---------------------------------------------------------------------------|
D|---------------------------------------------------------------------------|
A|---------------------------------------------------------------------------|
E|---0-10-0----------0-10-3-3-3-3-5-3--0-10-0-///\\\-0-10-03-3-3-3-5-3-------|

Verse

e|---------------------------------------------------------------------------|
B|---------------------------------------------------------------------------|
G|----------------------5-3--------------------------------------------------|
D|--------------------------5-3----------------------------------------------|
A|--------------------3-----------------------------8-7----------------------|
E|---0--0-0---0--0-0-------------3--3-3---5--5-5-----------------------------|

e|---------------------------------------------------------------------------|
B|---------------------------------------------------------------------------|
G|---------------------------------------------------------------------------|
D|---------------------------------------------------------------------------|
A|--------------------3--///--5---------------------8-7----------------------|
E|---0--0-0---0--0-0-------------3--3-3---5--5-5-----------7--3--0---7--3----|

Chorus

e|---------------------------------------------------------------------------|
B|---------------------------------------------------------------------------|
G|---------------------------------------------------------------------------|
D|---------------------------------------------------------------------------|
A|---------------------------------------------------------------------------|
E|---3-3-//-10-12-12-12\\-7-7-7-7-7-3-3-0-0-10-10-10-12-12-12-7-7-7----------|

e|---------------------------------------------------------------------------|
B|---------------------------------------------------------------------------|
G|---------------------------------------------------------------------------|
D|---------------------------------------------------------------------------|
A|---------------------------------------------------------------------------|
E|---3-3-//-10-12-12-12\\-7-7-7-7-7-3-3-3-5----------------------------------|

Post Chorus

e|---------------------------------------------------------------------------|
B|---------------------------------------------------------------------------|
G|---------------------------------------------------------------------------|
D|---------------------------------------------------------------------------|
A|---------------------------------------------------------------------------|
E|---0-10-0///\\\0-10-3-3-3-3-5-3---0-10-0///\\\0-10-0-3-3-3-4-5-3--0--------|

Breakdown

e|---------------------------------------------------------------------------|
B|---------------------------------------------------------------------------|
G|---------------------------------------------------------------------------|
D|---------------------------------------------------------------------------|
A|---------------------------------------------------------------------------|
E|---0-0--0-0--0-0-0--0-0--0-0--0-0-0--3-3--3-3--3-3-3--5-5--5-5--5-5-5-//\\-|

e|---------------------------------------------------------------------------|
B|---------------------------------------------------------------------------|
G|---------------------------------------------------------------------------|
D|---------------------------------------------------------------------------|
A|---------------------------------------------------------------------------|
E|---0-0--0-0--0-0-0--0-0--0-0--0-0-0--3-3--3-3--3-3-3--55-55-55-5-----------|

Chorus

e|---------------------------------------------------------------------------|
B|---------------------------------------------------------------------------|
G|---------------------------------------------------------------------------|
D|---------------------------------------------------------------------------|
A|---------------------------------------------------------------------------|
E|---3-3-//-10-12-12-12\\-7-7-7-7-7-3-3-0-0-10-10-10-12-12-12-7-7-7----------|

e|---------------------------------------------------------------------------|
B|---------------------------------------------------------------------------|
G|---------------------------------------------------------------------------|
D|---------------------------------------------------------------------------|
A|---------------------------------------------------------------------------|
E|---3-3-//-10-12-12-12\\-7-7-7-7-7-3-3-3-5--0-0-0-0-0-0-00-0-0-0-0-00-0~~~~-|

************************************

| /   slide up
| \   slide down
| h   hammer-on
| p   pull-off
| ~   vibrato
| +   harmonic
| x   Mute note
| b   Bend
| pb  Pre-bend
| br  Bend release
| pbr Pre-bend release
| brb Bend release bend

************************************
comments
We did not receive enough feedback on this tab! Please rate:
print report bad tab
1 2 3 4 5
1 comment total.
0 reply
StROZocaster wrote on December 12 2012, 10:12 am

Omg bassist sounds enthusiastic.

I want to post or [tab]
guest
You may want to rate the tab now too:
select rating
Please do not post tabs as comments. Select "correction" instead!