Oops, an error
Loading. Please wait.

And The Wiremen - Before He Gave Up The Ghost Tab

16 views 1 this week
no commentswrite comment
1 2 3 4 5
3 more votes to show rating
add to favorites
launch autoscroll
font size
0
reset
how to read this tab
guitar tuner
Autoscroll
slow
fast
+/-
esc
set tempo
stop
Help us to improve Ultimate-Guitar.com Take our survey!
×
Author
Difficulty
novice
|-------------------------------------------------------------------------------|
|                           Before He Gave Up The Ghost - And The Wiremen       |
|-------------------------------------------------------------------------------|

E|-------------|-------------|-------------|----------------|
B|-------------|-------------|-------------|----------------|
G|---5-----2---|---0---------|-------------|---0---------2--|
D|-------------|-------0h2---|-------------|---------2------|
A|-------------|-------------|---7-----5---|----------------|
E|-5---x-3-----|-0-----------|-5---x-3-----|-0-----0---3----|  x14

Underneath trumpet solo at every four bar phrase:
E|--------|-------|-----0--|------0---|
B|--------|----0--|----3---|-----0----|
G|----2---|---2---|---2----|----1-----|
D|---2----|--2----|--3-----|---2------|
A|--0-----|-0-----|-1------|--2-------|
E|-0------|-------|--------|-0--------|

E|-------------|-------------|-------------|----------------|
B|-------------|-------------|-------------|----------------|
G|---5-----2---|---0---------|-------------|---0---------2--|
D|-------------|-------0h2---|-------------|---------2------|
A|-------------|-------------|---7-----5---|----------------|
E|-5---x-3-----|-0-----------|-5---x-3-----|-0-----0---3----|  x20

E|-------------|-------------|-------------|----------------|
B|-------------|-------------|-------------|----------------|
G|---5-----2---|---0---------|-------------|---0------------|
D|-------------|-------0h2---|-------------|----------------|
A|-------------|-------------|---7-----5---|----------------|
E|-5---x-3-----|-0-----------|-5---x-3-----|-0-----0-0-3-5--| 
Suggest correction
Give kudos to tab author, rate the tab!
1 2 3 4 5
comments
print report bad tab
guest
You may want to rate the tab now too:
select rating
Wanna post a correction for this tab? Suggest correction