Oops, an error
Loading. Please wait.

Andy C Saxton - Evolution Of The Thumb Part 1 Bass Tab

1,557 views 1 this week
no commentswrite comment
1 2 3 4 5
3 more votes to show rating
add to favorites
launch autoscroll
font size
0
reset
guitar tuner
Autoscroll
slow
fast
+/-
esc
set tempo
stop
Help us to improve Ultimate-Guitar.com Take our survey!
×
Author
Difficulty
intermediate
----------------------------------------------------------------------------
Evolution of the Thumb (Part 1) - Andy C Saxton
----------------------------------------------------------------------------

Not sure if this is 100%, though it really sounds like it. If you have any
questions, feel free to e-mail me at tim-b-@hotmail.com.

Note that this is the version on the CD, and not his youtube video.

Tuning: 5 string treble bass (EADGC)

-Intro: (0.00)
C---------------------------------------|
G---------------4---------------------4-|
D-------5h7-10-------------5h7-10/12----|
A--0--0-------------0-0--0--------------|
E---------------------------------------|
   S  S L   R   L   S S  S L   R      L
      [ 3 ]              [ 3 ]

C----------------------------------------|
G------------------------------------4---|
D-------5h7-10/9h7---------5h7-10/12-----|
A--0--0-------------0-0--0---------------|
E----------------------------------------|
   S  S L   R      S S  S L    R     L
      [ 3 ]              [ 3 ]

C---------------------------------------|
G---------------4---------------------4-|
D-------5h7-10-------------5h7-10/12----|
A--0--0-------------0-0--0--------------|
E---------------------------------------|
   S  S L   R   L   S S  S L   R      L
      [ 3 ]              [ 3 ]

C---------------------------------------|
G------------------------------12h2-----|
D-------5h7-10/9h7---------5h7-------10-|
A--0--0-------------0-0--0--------------|
E---------------------------------------|
   S  S L   R      S S  S L    R     L
      [ 3 ]              [ 3 ]

-Main Theme: (0.13)
C--0-0-12/11h0---------0-0-0-0---12/14h0---------0---0-|
G--5-5---------12/14h0-5/9-9/7-7---------14/16h0-7/9-9-|
D--3-3-----------------3/7-7/5-5-----------------5/7-7-|
A------------------------------------------------------|
E------------------------------------------------------|
   t t R       R       t   t   t  R       R

C--0-0-12/11h0---------0-0-0-0---12/14h0---------17/16h0-----|
G--5-5---------12/14h0-5/9-9/7-7---------14/16h0--------15h0-|
D--3-3-----------------3/7-7/5-5-----------------------------|
A------------------------------------------------------------|
E------------------------------------------------------------|
   t t R       R       t   t   t R       R       R      R

-Interlude: (0.25) (Played x2)
C-------------x--------------------------|
G---2-------x---0--------------5h12h5----|
D-----------x------x-x5h7-12h7--------7--|
A-0--0--0-x-x----------------------------|
E----------------------------------------|
  S PS  S L S P S  S SL   R    L R    L
                     [ 3 ]


C-------------x--------------------0-----|
G---2-------x---0--------------5---5-----|
D-----------x------x-x5h7-12h7---7-7-----|
A-0--0--0-x-x----------------------------|
E----------------------------------------|
  S PS  S L S P S  S SL   R    L L t
                     [ 3 ]

-Repeat Main theme x1 to finish (0.38)

Legend:
S=Slap,
P=Pop,
h=Hammer on/off,
/ = Slide,
L= Left Handed tap,
R= Right handed tap,
[ 3 ]= Triplet,
x= Mute note,
t=Strummed chord
Suggest correction
Give kudos to tab author, rate the tab!
1 2 3 4 5
comments
print report bad tab
guest
You may want to rate the tab now too:
select rating
Wanna post a correction for this tab? Suggest correction