Oops, an error
Loading. Please wait.

Animusic - Stick Figures Bass Tab

2,680 views 3 this week
no commentswrite comment
1 2 3 4 5
please rate
add to favorites
launch autoscroll
font size
0
reset
guitar tuner
Autoscroll
slow
fast
+/-
esc
set tempo
stop
Help us to improve Ultimate-Guitar.com Take our survey!
×
Contributor
                           Stick Figures - Animusic                             


                                                                        Animusic
Дорожка 1



     Q    E  Q    Q     E     E  E  Q    Q    E  E     Q    E  Q    Q     E   
G||---------------9~-------|--------7---------------|---------------9~-------|
D||----------9----------9--|-------------7----------|----------9----------9--|
A||-------7----------------|--7---------------5-----|-------7----------------|
E||--0---------------------|-----7---------------7--|--0---------------------|


  E  E    Q     E  E  E  E     Q    E  Q    Q     E     E  E  Q    Q    E  E   
----------------------------|---------------9~-------|--------7---------------|
----------------------------|----------9----------9--|-------------7----------|
--7-----/10~----7--5--------|-------7----------------|--7---------------5-----|
-----7----------------7--5--|--0---------------------|-----7---------------7--|


  Q    E  Q    Q     E     E  E  E  E   E  E  E  E     Q    E  Q    Q     E   
---------------9~-------|---------------------------|---------------9~-------|
----------9----------9--|---------------------------|----------9----------9--|
-------7----------------|--7-----8--9--10--9--7--5--|-------7----------------|
--0---------------------|-----7---------------------|--0---------------------|


  E  E  Q    Q    E  E     Q    E  Q    Q     E     E  E    Q     E  E  E  E   
--------7---------------|---------------9~-------|----------------------------|
-------------7----------|----------9----------9--|----------------------------|
--7---------------5-----|-------7----------------|--7-----/10~----7--5--------|
-----7---------------7--|--0---------------------|-----7----------------7--5--|


  Q    E  Q    Q     E     E  E  Q    Q    E  E     Q    E  Q    Q     E   
---------------9~-------|--------7---------------|---------------9~-------|
----------9----------9--|-------------7----------|----------9----------9--|
-------7----------------|--7---------------5-----|-------7----------------|
--0---------------------|-----7---------------7--|--0---------------------|


  E  E  Q     Q    Q     3x   Q     E   Q     Q      E   
-------------------------||------------------12~--------|
------------------------*||*-----------12-----------12--|
--7---------------------*||*-------10-------------------|
-----7--9----10----------||---3-------------------------|


   E   E   Q     Q     Q       Q     E   Q     Q      E   
----------------------------|-----------------14~--------|
----------12----------------|-----------14-----------14--|
--10------------12----------|--0----12-------------------|
------10--------------10----|----------------------------|


   E   E   Q      E   E  E  E     Q     E   Q     Q      E   
----------14~------------------|-----------------12~--------|
-----------------14------------|-----------12-----------12--|
--12-----------------12--0-----|-------10-------------------|
------12--------------------4--|--3-------------------------|


   E   E    Q     Q    E  E     Q     E   Q     Q      E   
-----------------------------|-----------------14~--------|
----------/12----------------|-----------14-----------14--|
--10-------------12----3--2--|--0----12-------------------|
------10---------------------|----------------------------|


   E   E   Q     E   E  E  E     Q     E   Q     Q      E   
----------14------------------|-----------------17~--------|
----------------14------------|-----------17-----------17--|
--12----------------12--0--2--|--3----15-------------------|
------12----------------------|----------------------------|


                           T                           
   E   E    Q      Q    E  E     Q    E  Q    Q    E   
------------------------0-----|---------------7-------|
----------/17~----------------|--0-------7---------7--|
--15--------------17----------|-------5---------------|
------15-------------------3--|-----------------------|


  E  E  Q    E  E  E  E     Q     E   Q     Q      E   
--------7----------------|-----------------17~--------|
-------------7-----------|-----------17-----------17--|
--5-------------5--0--2--|--3----15-------------------|
-----5-------------------|----------------------------|


                           T                           
   E   E    Q      Q    E  E     Q    E  Q    Q    E   
------------------------0-----|---------------7-------|
----------/17~----------------|--0-------7---------7--|
--15--------------17----------|-------5---------------|
------15-------------------3--|-----------------------|


  E  E  Q    Q    Q         E  E  Q    Q    Q       Q    E  Q    Q     E   
--------7---------------||--------7--------------|---------------9~-------|
-------------7---------*||-------------7---------|----------9----------9--|
--5---------------0----*||--5---------------5----|-------7----------------|
-----5------------------||-----5-----------------|--0---------------------|


  E  E  Q    Q    E  E     Q    E  Q    Q     E     E  E    Q     E  E  E  E   
--------7---------------|---------------9~-------|----------------------------|
-------------7----------|----------9----------9--|----------------------------|
--7---------------5-----|-------7----------------|--7-----/10~----7--5--------|
-----7---------------7--|--0---------------------|-----7----------------7--5--|


  Q    E  Q    Q     E     E  E  Q    Q    E  E     Q    E  Q    Q     E   
---------------9~-------|--------7---------------|---------------9~-------|
----------9----------9--|-------------7----------|----------9----------9--|
-------7----------------|--7---------------5-----|-------7----------------|
--0---------------------|-----7---------------7--|--0---------------------|


  E  E  E  E   E  E  E  E     Q    E  Q    Q     E     E  E  Q    Q    E  E   
---------------------------|---------------9~-------|--------7---------------|
---------------------------|----------9----------9--|-------------7----------|
--7-----8--9--10--9--7--5--|-------7----------------|--7---------------5-----|
-----7---------------------|--0---------------------|-----7---------------7--|


  Q    E  Q    Q     E     E  E    Q     E  E  E  E     Q    E  Q    Q     E   
---------------9~-------|----------------------------|---------------9~-------|
----------9----------9--|----------------------------|----------9----------9--|
-------7----------------|--7-----/10~----7--5--------|-------7----------------|
--0---------------------|-----7----------------7--5--|--0---------------------|


  E  E  Q    Q    E  E     Q    E  Q    Q     E     E  E  Q     Q    Q     
--------7---------------|---------------9~-------|------------------------|
-------------7----------|----------9----------9--|------------------------|
--7---------------5-----|-------7----------------|--7---------------------|
-----7---------------7--|--0---------------------|-----7--9----10---------|


    Q     E   Q     Q      E      E   E   Q     Q     Q     
|------------------12~--------|----------------------------|
|*-----------12-----------12--|----------12----------------|
|*-------10-------------------|--10------------12----------|
|---3-------------------------|------10--------------10----|


  Q     E   Q     Q      E      E   E   Q      E   E  E  E   
-----------------14~--------|----------14~------------------|
-----------14-----------14--|-----------------14------------|
--0----12-------------------|--12-----------------12--0-----|
----------------------------|------12--------------------4--|


  Q     E   Q     Q      E      E   E    Q     Q    E  E   
-----------------12~--------|-----------------------------|
-----------12-----------12--|----------/12----------------|
-------10-------------------|--10-------------12----3--2--|
--3-------------------------|------10---------------------|


  Q     E   Q     Q      E      E   E   Q     E   E  E  E   
-----------------14~--------|----------14------------------|
-----------14-----------14--|----------------14------------|
--0----12-------------------|--12----------------12--0--2--|
----------------------------|------12----------------------|


                                                        T   
  Q     E   Q     Q      E      E   E    Q      Q    E  E   
-----------------17~--------|------------------------0-----|
-----------17-----------17--|----------/17~----------------|
--3----15-------------------|--15--------------17----------|
----------------------------|------15-------------------3--|


  Q    E  Q    Q    E     E  E  Q    E  E  E  E     Q     E   Q     Q      E   
---------------7-------|--------7----------------|-----------------17~--------|
--0-------7---------7--|-------------7-----------|-----------17-----------17--|
-------5---------------|--5-------------5--0--2--|--3----15-------------------|
-----------------------|-----5-------------------|----------------------------|


                           T                           
   E   E    Q      Q    E  E     Q    E  Q    Q    E   
------------------------0-----|---------------7-------|
----------/17~----------------|--0-------7---------7--|
--15--------------17----------|-------5---------------|
------15-------------------3--|-----------------------|


  E  E  Q    Q    Q         E  E  Q    Q    Q         E  E  Q    Q    Q     
--------7---------------||--------7---------------||--------7--------------|
-------------7---------*||-------------7---------*||-------------7---------|
--5---------------0----*||--5---------------5----*||--5--------------------|
-----5------------------||-----5------------------||-----5------------5----|


  W                  
-------------------||
-------------------||
-------------------||
--3----------------||




Duration Legend
---------------
W - whole
H - half
Q - quarter
E - 8th
S - 16th
T - 32nd
X - 64th
. - note dotted
|-n-|  - n-tuplets


Tablature Legend
----------------
L - tied note
x - dead note
g - grace note
(n) - ghost note
> - accentuded note
NH - natural harmonic
AH - artificial harmonic
TH - tapped harmonic
SH - semi harmonic
PH - pitch harmonic
h - hammer on
p - pull off
b - bend
br - bendRelease
pb - preBend
pbr - preBendRelease
brb - bendReleaseBend
\n/ - tremolo bar dip
\n - tremolo bar dive
-/n - tremolo bar Release up
/n\ - tremolo bar inverted dip
/n - tremolo bar return
-\n - tremolo bar Release down
S - shift slide
s - legato slide
/ -  slide into from below or out of upwards
\ -  slide into from above or out of downwards
~ - vibrato
W - wide vibrato
tr - trill
TP - tremolo picking
T - tapping
S - slap
P - pop
< - fade in
^ - brush up
v - brush down

http://animusic.com/
http://animusic.com/dvd-info-clips-1.html

Suggest correction new What's this?
You can suggest a correction to this tab. Community and Mods will review your correction and vote to approve or reject it.
comments
We did not receive enough feedback on this tab! Please rate:
print report bad tab
1 2 3 4 5
guest
You may want to rate the tab now too:
select rating
Please do not post tabs as comments. Select "correction" instead!