Oops, an error
Loading. Please wait.

Antonia Font - Tristesa Bass Tab

824 views 1 this week
no commentswrite comment
1 2 3 4 5
please rate
add to favorites
launch autoscroll
font size
0
reset
guitar tuner
Autoscroll
slow
fast
+/-
esc
set tempo
stop
Help us to improve Ultimate-Guitar.com Take our survey!
×
Author
HGF 357
Hello!!

ja ho sabeu, si necesitau o velu dir qualque cosa -> '' ESP_bender-a.C.-@hotmail.com ''

pute linia de baix d'en Joan Roca...

Estandar
--------

   INTRO/VERS
Sol----------------------------|----------------------------|
Re ----------------------------|----------------------------|
La --9-5---4-5---------2--5----|---9-5-4445-----------------|
Mi 7-----------7--00-3------5-0|-7----------7---0-00-1-22-22|

G -----------------------------|----------------------------|
D -----------------------------|----------------------------|
A ---9-5---4-5---------2--5----|---9-5--4-5-----------------|
E 27-----------7--00-3------5-0|-7----------7---0-00-1-22-22|

 -----------------------------|----------------------------|
 -----------------------------|----------------------------|
 ---9-5---4-5---------2--5----|---9-5--4-5-----------------|
 27-----------7--00-3------5-0|-7----------7---0-00-1-2--22|

PRE-TORNADA (PRE-ESTRIBILLO/PRE-CHORUS)
 ----------------------------------------------------|
 -------------------------------55-------------77--9\|
 10-----1212-------5---------55-----55------77-------|
 ----10-------12------5--3-------------55------------|

VERS
 ----------------------------|-----------------------------|
 ----------------------------|-----------------------------|
 --4-5---4-5---------2--5----|---9-5--4-5--------2---555---|
 7-----------7--00-3------5-0|-7----------7--0-3--------5-0|

 ---------------------------|
 ---------------------------|
 --9-5--4-5-----------------|
 7----------7---0-00-1-22-22|

 ----------------------------|----------------------------|
 ----------------------------|----------------------------|
 --9-5---4-5---------2--5----|---9-5--445-----------------|
 7-----------7--00-3------5-0|-7----------7---0-00-1-2--22|

PRE-TORNADA (PRE-ESTRIBILLO/PRE-CHORUS)
 ------------------------------------------------|-------|
 -------------------------------55-------------77|--9-11-|
 10-----1212-------5---------55-----55------77---|-------|
 ----10-------12------5--3-------------55--------|-------|

 -----------------|
 -----------------|
 ----12--------7--|
 10-----10--9----9|

TORNADA (ESTRIBILLO/CHORUS)
 --------------------------------------------------------|
 --------------5----5-4----4-2----2------------4---------|
 ---5------7------5------5------2----5----4-5----5-4--5-7|
 7----7-5----5--------------------------5----------------|

 ------------------------------------------|
 --------------5----5-4----4-2----2--------|
 ---5------7------5------5------2----5----4|
 7----7-5----5--------------------------5--|

VERS
 ---------------------------|----------------------------|
 ---------------------------|----------------------------|
 --9-5--44-5--------2--5----|---9-5--4-5--------2--555---|
 7-----------7--0-3------5-0|77----------7-00-3-------5-0|

 ---------------------------|
 ---------------------------|
 --9-5--4-5-----------------|
 7----------7\--0-00-1-22-22|

 ---------------------------|----------------------------|
 ---------------------------|----------------------------|
 ---9-5--4-5--------2--5----|---9-5-44-5-----------------|
 27----------7-00-3------5-0|-7----------7---0-00-1-22-22|

PRE-TORNADA (PRE-ESTRIBILLO/PRE-CHORUS)
 ------------------------------------------------|-------|
 -------------------------------55-------------77|--9-11-|
 10-----1212-------5---------55-----55------77---|-------|
 ----10-------12------5--3-------------55--------|-------|

 -----------------|
 -----------------|
 ----12--------7-9|
 10-----10--9-----|

 ------------------------------------------------|-------|
 -------------------------------55-------------77|--9-11-|
 10-----1212-------5---------55-----55------77---|-------|
 ----10-------12------5--3-------------55--------|-------|

 -----------------|
 -----------------|
 ----12--------7-9|
 10-----10--9-----|

TORNADA
 -------------------------------------------------------------| tres
 --------------5----5-4----4-2----2------------4---------.----| pics
 ---5------7------5------5------2----5----4-5----5-4--5-7.----| X3
 7----7-5----5--------------------------5---------------------| tres

 ------------------------------------------|
 --------------5----5-4----4-2----2--------|
 ---5------7------5------5------2----5----4|
 7----7-5----5--------------------------5--|

VERS/FINAL (VERSE/ENDING)
 ---------------------------|---------------------------|
 ---------------------------|---------------------------|
 --9-5--44-5--------2-55----|--9-5-44-5-----------------|
 7-----------7--0-3------5-0|7----------7---0-00-1-22-22|

 ----------------------------|--|
 ----------------------------|--|
 ---9-5--44-5--------2-555---|--|
 27-----------7-00-3------5-0|7~|


soc l'eminencia internacional!!
aprofit per fer un salut a tot catalanoparlant, que, malgrat jo sigui castella de 
m'agrada aquest llenguatge i aquesta gent

and for the UG crew, here's a link to the official website of the band Antonia Font
www.antoniafontoficial.com
Suggest correction
What's this?
You can suggest a correction to this tab. Community and Mods will review your correction and vote to approve or reject it.
comments
We did not receive enough feedback on this tab! Please rate:
print report bad tab
1 2 3 4 5
guest
You may want to rate the tab now too:
select rating
Please do not post tabs as comments. Select "correction" instead!