Oops, an error
Loading. Please wait.

Apart Aside - Sally The Doll Bass Tab

25 views 1 this week
no commentswrite comment
1 2 3 4 5
please rate
add to favorites
launch autoscroll
font size
0
reset
guitar tuner
Autoscroll
slow
fast
+/-
esc
set tempo
stop
Help us to improve Ultimate-Guitar.com Take our survey!
×
Author
Difficulty
intermediate
-------------------------------------------------------------------------------
                             SALLY THE DOLL - APART ASIDE
-------------------------------------------------------------------------------

Tabbed By: VYA
e-mail: verifyyrage@gmail.com

Tuning: Standard Bass


Chorus BASS Tab

   -->Life is good ///////

G|---------------------------------------------------------------------------|
D|----------3----------------------------------------------------------------|
A|6-4---4-6--6-4-----1-2-1-2-1---4-----4-----4-------------------------------|
E|----6----------2-4-----------4---6-4---6-4---6-4-4-4-6-4-4-4-6-------------|

G|---------------------------------------------------------------------------|
D|----------3----------------------------------------------------------------|
A|6-4---4-6--6-4-----1-2-1-2-1---4-----4-----4-------------------------------|
E|----6----------2-4-----------4---6-4---6-4---6-4-4-4-6-4-4-4-6-------------|

 And it's fight, and it's war...

G|-----------5-7-8-----------------8-5---8-5---8-5---------------------------|
D|-----5-6-8---------------------------8-----8-------------------------------|
A|6-8------------------------------------------------------------------------|
E|-----------------2-2-2-2-2-2-2-2-----------------4-4-4-4-4-4-4-4-----------|

G|-----------5-7-8-----------------8-5---8-5---8-5---------------------------|
D|-----5-6-8---------------------------8-----8-------------------------------|
A|6-8------------------------------------------------------------------------|
E|-----------------2-2-2-2-2-2-2-2-----------------4-4-4-4-4-4-4-4-----------|
Suggest correction
Give kudos to tab author, rate the tab!
1 2 3 4 5
comments
print report bad tab
guest
You may want to rate the tab now too:
select rating
Wanna post a correction for this tab? Suggest correction