Oops, an error
Loading. Please wait.

Ape Nebula - Awfully Bore Tab

48 views 1 this week
no commentswrite comment
1 2 3 4 5
please rate
add to favorites
launch autoscroll
font size
0
reset
how to read this tab
guitar tuner
Autoscroll
slow
fast
+/-
esc
set tempo
stop
Help us to improve Ultimate-Guitar.com Take our survey!
×
Author
Difficulty
novice
Intro
e|---------------------------------------------------------|
B|---------------------------------------------------------|
G|---------------------------------------------------------|
D|---------------------------------------------------------|
A|----444-2-------444-2------------------------------------|
E|----------2-4---------4-2--------------------------------|

   Verse                 Riff 1            Riff 2
e|---------------------|--------|----------------------------|
B|---------------------|--------|----------------------------|
G|-666-4------666-4----|--666-4-|-666-4------666-4-6---------|
D|-666-4-4-6--666-4-6-4|--666-4-|-666-4-4-6--666-4-6-6-------|
A|-444-2-4-6--444-2-6-4|--444-2-|-444-2-4-6--444-2-4-6-------|
E|-------2-4--------4-2|--------|-------2-4----------4-------|
 


  Chorus
e|----------------------|
B|----------------------|
G|-6666-4444------------|
D|-6666-4444-4444-6666--|
A|-4444-2222-4444-6666--|
E|-----------2222-4444--|

Post Chorus
e|---------------------------------------------------------|
B|---------------------------------------------------------|
G|-666-44-66-4--666-44-66-4-3------------------------------|
D|-666-44-66-4--666-44-66-4-3------------------------------|
A|-444-22-44-2--444-22-44-2-1------------------------------|
E|---------------------------------------------------------|

        Verse 2               Riff 3
e|-------------------|---------------------|
B|-------------------|---------------------|
G|-666-4----666-4----|-222-444-------------|
D|-666-4-4--666-4-6--|-222-444-444-666-----|
A|-444-2-4--444-2-6--|-000-222-444-666-----|
E|-------2--------4--|---------222-444-----|

Chorus
e|----------------------|
B|----------------------|
G|-6666-4444------------|
D|-6666-4444-4444-6666--|
A|-4444-2222-4444-6666--|
E|-----------2222-4444--|

Chorus 2
e|-----------------------------------------|
B|-----------------------------------------|
G|-----------------------------------------|
D|-6666666--8-888--10-101010--8-888--6-666-|
A|-6666666--8-888--10-101010--8-888--6-666-|
E|-4444444--6-666--08-080808--6-666--4-444-|

e|-----------------------------------------|
B|-----------------------------------------|
G|-----------------------------------------|
D|-8-8888---10-10101010--8-8888-6-6666-----|
A|-8-8888---10-10101010--8-8888-6-6666-----|
E|-6-6666---08-08080808--6-6666-4-4444-----|

Riff 4
e|--------------------------------------|
B|--------------------------------------|
G|--77777777777--555555555---7-5--------|
D|--77777777777--555555555---7-5--------|
A|--55555555555--333333333---5-3--------|
E|--------------------------------------|


Prechorus
e|------------|
B|------------|
G|------------|
D|-4444-6666--|
A|-4444-6666--|
E|-2222-4444--|

  Chorus
e|----------------------|
B|----------------------|
G|-6666-4444------------|
D|-6666-4444-4444-6666--|
A|-4444-2222-4444-6666--|
E|-----------2222-4444--|

Outro
e|--------------------------|----------|
B|--------------------------|----------|
G|-6666-4444----------------|-2-4------|
D|-6666-4444-4444-66666666--|-2-4-4-6--|
A|-4444-2222-4444-66666666--|-0-2-4-6--|
E|-----------2222-44444444--|-----2-4--|


Order
Intro x1
Verse x2
Riff 1 x1
Riff 2 x1
Chorus x2
Post Chorus x1
Verse x2
Riff 3 x1
Chorus x4
Chorus 2 x2
Riff 4 x2
Pre Chorus x1
Chorus x2
Outro x1
Suggest correction
What's this?
You can suggest a correction to this tab. Community and Mods will review your correction and vote to approve or reject it.
comments
We did not receive enough feedback on this tab! Please rate:
print report bad tab
1 2 3 4 5
guest
You may want to rate the tab now too:
select rating
Please do not post tabs as comments. Select "correction" instead!