Oops, an error
Loading. Please wait.

Apocalypse Displeasure - Ancient Hell Tab

35 views 1 this week
no commentswrite comment
1 2 3 4 5
please rate
add to favorites
launch autoscroll
font size
0
reset
how to read this tab
guitar tuner
Tab Pro tools
  • play this tab
  • loop segment
  • change instrument
  • show fretboard
  • metronome
×
Best way to learn
"Apocalypse Displeasure - Ancient Hell"
Autoscroll
slow
fast
+/-
esc
set tempo
stop
Contributor
Hey this my band's tab for a song we named "Ancient Hell". You should
probably know that we aren't popular At ALL and we are just 4 kids in 
high school trying to make a hit song, here it is: 

Song:   "Ancient Hell"
Artist: Apocalypse Displeasure 
Year:   2009
Tuning: Standard
Speed:  Moderate (120)

(Rythym guitar opens first)               

Intro:
E|-------------------------------------------------------------------------|
B|-------------------------------------------------------------------------|
G|-------------------7-7-----------------3---------------------------------|
D|-5-5---------------7-7--7-7-7-7-7-7----3--(Quick drum fill here)-----2~--|
A|-5-5--5-5-5-5-5-5--5-5--5-5-5-5-5-5----1-----------------------------2~--|
E|-3-3--3-3-3-3-3-3------------------------------------------------12\-0~--|
P.M:    . . . . . .       . . . . . .

(Full band plays during the rest of the song from here):

Main Verse: 
E|-------------------------------------------------------------------------|
B|-------------------------------------------------------------------------|
G|-----------3-3---------------------3-3---------3-------------------------|
D|-3---------3-3-2~--3----------2~---3-3-------3-3-2-X-X-------------------|
A|-3-2-------1-1-2~--3-2-0-0-0--2~---1-1-------3-1-2-X-X-1-----------------|
E|-1-0-0-0-0-----0~--1-0--------0~-------0-0-0-1---0-X-X---1(1)-0h2~-------|
P.M:   . . .             . . .           . . .       . . .

Main Verse (Bass):  

G|-------------------------------------------------------------------------|
D|-------------------------------------------------------------------------|
A|-----------1-1---------0-0-0-------------------1-------1-----------------|
E|-1-0-0-0-0-----0---1-0--------0----1-1-0-0-0-1---0-------1----0~---------|


Chorus:

E|-------------------------------------------------------------------------|
B|-------------------------------------------------------------------------|
G|-------------------------------------------------------------------------|
D|--3-3-----3-3-----------3--2-2-2-2-2-2--3-3---------------2~-------------|
A|--3-3-----3-3-----------3--3-3-3-3-3-3--3-3------1h3------2~-------------|
E|--1-1-0-0-1-1-0-0-0-0-0-1--0-0-0-0-0-0--1-1--1h3-----1h3--0~-------------|
P.M:    . .     . . . . .    . . . . . .

Chorus (Bass): 

G|-------------------------------------------------------------------------|
D|---------------------------0-0-0-0-0-0-----------------------------------|
A|-------------------------------------------------------------------------|
E|--1-1-0-0-1-1-0-0-0-0-0-1---------------1-1--1~--1~--1~---0--------------|
P.M:                         . . . . . .
  
Order: 
Intro      (x1)
Main verse (x3)
Chorus     (x1) 
Main verse (x3)
Intro      (x1) 
Main verse (x3)
Chorus     (x1)
Main verse (x2) 
Chorus     (x1)  


Key: 
X    = Muted string 
P.M. = Palm muting 
~    = Vibrato (Our vibrato is done by a whammy bar) 
h    = Hammer on 
p    = Pull off
/    = Slide to 
\    = Slide from
 

That's it, it's fairly easy and again we are just 4 kids from Pittsburgh 
so please don't expect much out of this song. It's just a cool little 
riff we made up and thought it sounded cool. Thanks. 

comments
We did not receive enough feedback on this tab! Please rate:
print report bad tab
1 2 3 4 5
I want to post or [tab]
guest
You may want to rate the tab now too:
select rating
Please do not post tabs as comments. Select "correction" instead!