Oops, an error
Loading. Please wait.

April Chase - Time Wont Tell Acoustic Chords

2,458 views 3 this week
no commentswrite comment
1 2 3 4 5
worth learning
x 1
add to favorites
launch autoscroll
font size
0
reset
transpose
0
reset
simplify chords
- display chords -
guitar tuner
Tab Pro tools
  • play this tab
  • loop segment
  • change instrument
  • show fretboard
  • metronome
Autoscroll
slow
fast
+/-
esc
set tempo
stop
Contributor
Song: Time Won't Tell (Acoustic)
Artist: April Chase
Band website: http://www.aprilchasemusic.com/

Very first April Chase tab on the site! I tabbed this out from the acoustic video 
(http://www.youtube.com/watch?v=SEK0bf1ABfs), not the plugged in version...which 
is why it's marked as acoustic. I know I've probably made some errors, so please 
make comments/corrections! As for the song itself, it's quite easy once you get 
used to the weird chords.

Chord List: ("UC" is just my shorthand for "Unknown Chord," which means I have no 
clue what to call it. It's just what I thought sounded right.)

   E5  C#m UC1  B  A5  B5  UC2  UC3   F#m G#m A-1 E5/D# C#5 Bb Ab7  G F#7
e|---------------0---------------------0---0----0--0-----0--------------| 
B|---------------0---------------------0---0----0--0-----0--------------| 
G|--9---9---6----8----------9----8-----2---4----6--9-----6---6--4---3-2-| 
D|--9---9---7----9--7---9---7----9-----4---6----7--9-----6---6--4---3-2-| 
A|--7---x---7----9--7---9---7----9-----4---6----7--6-----4---x--x---x-x-| 
E|------9--------7--5---7-----------------------5------------6--4---3-2-|  
 


Intro:
P.M.-----|           P.M.---|
e|---------7--------|-------------------------------------------------| 
B|----------9-------|-------------------------------------------------| 
G|--99999----8------|--99999-9\---------------------------------------| 
D|--99999------(x3)-|--99999-9\---------------------------------------| 
A|--77777-----------|--77777-x\---------------------------------------| 
E|------------------|--------9\---------------------------------------| 
     

Verse 1:
             E5
I can't even think straight
                C#m
Thinking's making me late
                     UC1
For tomorrow and the next day
            B
Dreaming I'm wasting my time,
I'm wasting my time

Pre-Chorus:
   A5
And I wake myself up
 B5
I make myself close to you
     UC2
The clock ticks and tocks
   UC3
I hope that I'm meant for you
(x2)

Chorus:
E
Said so, said so, give me a reason
    F#m                     G#m
And I can't let go, can't let go
A
Nobody's leaving,
and I'm still breathing
(x2)

(repeat intro)

                    E5
How 'bout we take a slow break?
                    C#m
And save us from the heartache
                UC1
Before it gets too late
          B
And we can change our minds

   A5
And I wake myself up
 B5
I make myself close to you
     UC2
The clock ticks and tocks
   UC3
I hope that I'm meant for you
(x2)

E
Said so, said so, give me a reason
    F#m                     G#m
And I can't let go, can't let go
A
Nobody's leaving,
and I'm still breathing

E
Said so, said so, give me a reason
    F#m                     G#m
And I can't let go, can't let go
A                 E (downstrum A few times)
Nobody's leaving,

Bridge (strum chords once):
A-1
And I just wanna say
E5/D#                    C#5
I don't wanna play these games
A-1
and I just wanna love you
Bb                 Ab7  G  F#7
but my heart won't say the same

E
Cause you said so, said so, give me a reason
    F#m                       G#m
And I can't let go, can't let go
A
Nobody's leaving
and I'm still breathing
(x2)

Outro:
F#m                              G#m
       And I'm still breathing
F#m                              G#m     F#m
       And I'm still breathing
       
   F#m       Asus2      E
e|--0--0------0--0------0-----| 
B|--0---0-----0---0-----0-----| 
G|--2---------2---------1-----| 
D|--2---------2---------2-----| 
A|--4---------0---------2-----| 
E|----------------------0-----| 
comments
We did not receive enough feedback on this tab! Please rate:
print report bad tab
1 2 3 4 5
I want to post or [tab]
guest
You may want to rate the tab now too:
select rating
Please do not post tabs as comments. Select "correction" instead!