Oops, an error
Loading. Please wait.

Arborize - Hunger tab

25 views 1 this week
no commentswrite comment
1 2 3 4 5
3 more votes to show rating
add to favorites
×
Save as Personal and add changes to this tab that will be seen only by you. Learn more ›
×
You can save this tab as Personal to edit and correct it or add notes. All changes will be seen only by you. Learn more »
launch autoscroll
font size
0
reset
how to read this tab
guitar tuner
edit
Autoscroll
slow
fast
+/-
esc
set tempo
stop
About this tab version
This is the original guitar tab for Hunger by Arborize composed by myself. Was this info helpful? Yes No
"Drop A" tuning - A G C F A D

[Hook 1]
(both guitars)
                           PM   PM PM                PM-----
D|-----------------------------------------------------------|
A|-----------------------------------------------------------|
F|-----------------------------------------------------------|
C|---------------------------------------------------------7-|
G|13b--13b--13b--13b--13b--------------12b--12b--12b---7-8---|
A|11b--11b--11b--11b--11b--0-0--0--0-0-10b--10b--10b-0-------|
                           
                           PM                 PM-------------
D|------------------------------------------------------------|
A|------------------------------------------------------------|
F|----------------------------8-8-8-8-8-8-8-8-----7/8-5h7---5-|
C|----------------------------------------------5---------8---|
G|13b--13b--13b--13b--13b-----6-6-6-6-6-6-6-6-3---------------|
A|11b--11b--11b--11b--11b--0--0-0-0-0-0-0-0-0-----------------|

(guitar 1)
                           PM   PM PM                PM--------
D|-------------------------------------------------------------|
A|-------------------------------------------------------------|
F|-------------------------------------------------------------|
C|-----------------------------------------------------10p7----|
G|13b--13b--13b--13b--13b--------------12b--12b--12b--------8p7|
A|11b--11b--11b--11b--11b--0-0--0--0-0-10b--10b--10b-0---------|

                           PM PM          PM  PM   
D|--------------------------------------------------5---5-6-8-|
A|------------------------------------------------6---6-------|
F|--------------------------------7/8-5h7---5---7-------------|
C|------------------------------5---------8---7---------------|
G|13b--13b--13b--13b--13b-----3-------------------------------|
A|11b--11b--11b--11b--11b--0----------------------------------|

(guitar 2)
                           PM   PM PM                PM--------
D|-------------------------------------------------------------|
A|-------------------------------------------------------------|
F|-----------------------------------------------------10p7----|
C|----------------------------------------------------------8p7|
G|13b--13b--13b--13b--13b--------------12b--12b--12b-----------|
A|11b--11b--11b--11b--11b--0-0--0--0-0-10b--10b--10b-0---------|

                           PM PM PM             PM    PM
D|-------------------------------------------------------------17----17-18-20|
A|----------------------------------------------------------18----18---------|
F|----------------------------------19/20-17h19----17----19------------------|
C|-------------------------------17-------------20----19---------------------|
G|13b--13b--13b--13b--13b-----15---------------------------------------------|
A|11b--11b--11b--11b--11b--0-------------------------------------------------|

[Unnecissareriphery] 
(lo-fi guitar lead-in)
            >
D|-------------|
A|-------------|
F|-------------|
C|-------------|
G|5-----3b-----|
A|--3\2-----0--|
            
(both guitars)
             PM              PM                          ~    PM
D|-------------------------------------------------------------------|
A|-------------------------------------------------------------------|
F|-----------------------------4b5-----------------------------------|
C|-----------------------3\2------------------9/13-12-11-10------3*--|
G|10-----8b--------0h3h5-----------------7h10------------------------|
A|---8\7-----0--0------------3-----/7-6-----------------------0------|

  PM---      PM PM PM N N N N N N    PM     PM------
D|---------------------------------------------------------------|
A|--------------------------------------9------------------------|
F|--------------------------------------10------------------12h15|
C|----------------------------------------------------11h12------|
G|--------------------5-5-5-5-5-5-4-----8------------------------|
A|0-0-0--0---0--0--0-----------------0------0-0-0--0-------------|

             PM              PM       
D|-------------------------------------------------------------|
A|---------------------------------------------------0---9---9-|
F|-----------------------3\2---3*------------------5-----6---6-|
C|-----------------0h3h5-----------------------3/5-------6---6-|
G|10-----8b------------------------------0h2h3-----------7---7-|
A|---8\7-----0--0------------3-----/3-2------------------------|

  PM------              N N N N N N    PM    PM PM  PM PM
D|-------------------------------------------------------------|
A|----------------------------------------8--------------------|
F|----------------------------------------7------------------8-|
C|----------------------------------------6--------------6h9---|
G|----------------------8-8-8-8-8-8-7--7--7--7-7-7--7--7-------|
A|0-0-0--0--5--5--4--4-----------------------------------------|

[Verse 1]
(both guitars)
                          PM                            PM---------
D|------------------------------|-----------------------------------|
A|-------------8--8---8\--------|-----------------------------------|
F|-------------11-11--11\-------|-----------------------------------|
C|------------------------------|-----------------------------------|
G|------10--9-------------------|-----------------------------------|
A|8--7---------------------0-0--|0--0--x-x-0---x-0-x-0--0-0-0-0-0-0-|

                               PM  PM--------------                    PM-----------------
D|--------------------------------|-------------------------------------------------------------------------|
A|---------------------8---8\-----|-------------------------------------------------------------------------|
F|---------------------11--11\----|------------------8--8--8--8--8--8-----------------------7--7--7--7--7--7|
C|--------------------------------|-------------------------------------------------------------------------|
G|-----------10-9-----------------|------------------6--6--6--6--6--6-----------------------5--5--5--5--5--5|
A|x-8-7--x-x-------x-x---------0-0|0-0-0-0--0--0--0--------------------5-5-5-5--4-4-4-4--4------------------|

(guitar 1)
                          PM                            PM---------
D|------------------------------|-----------------------------------|
A|-------------8--8---8\--------|-----------------------------------|
F|-------------11-11--11\-------|-----------------------------------|
C|------------------------------|-----------------------------------|
G|------10--9-------------------|-----------------------------------|
A|8--7---------------------0-0--|0--0--x-x-0---x-0-x-0--0-0-0-0-0-0-|

                               PM  PM--------------                    N N N N N N N N N N N N N N N N N N
D|--------------------------------|-------------------------------------------------------------------------|
A|---------------------8---8\-----|-------------------------------------------------------------------------|
F|---------------------11--11\----|------------------8--8--8--8--8--8---------------------------------------|
C|--------------------------------|-------------------------------------------------------------------------|
G|-----------10-9-----------------|------------------6--6--6--6--6--6--------------------------5-5-5-5-5-5--|
A|x-8-7--x-x-------x-x---------0-0|0-0-0-0--0--0--0--------------------5-5-5-5-5-5-4-4-4-4-4-4--------------|

(guitar 2)
                             PM                           PM----------
D|--------------------------------|-----------------------------------|
A|----------------15-15--15\------|-----------------------------------|
F|----------------18-18--18\------|-----------------------------------|
C|--------------------------------|-----------------------------------|
G|--------17--16------------------|-----------------------------------|
A|15--14----------------------0-0-|0--0--x-x-0---x-0-x-0--0-0-0-0-0-0-|

                                 PM  PM--------------                    N N N N N N N N N N N N N N N N N N
D|----------------------------------|------------------------------------------------------------------------|
A|------------------------15-15\----|------------------------------------------------------------------------|
F|------------------------18-18\----|------------------15-15-15-15-15-15-------------------------------------|
C|----------------------------------|------------------------------------------------------------------------|
G|-------------17-16----------------|------------------13-13-13-13-13-13-------------------------5-5-5-5-5-5-|
A|x-15-14--x-x--------x-x--------0-0|0-0-0-0--0--0--0--------------------5-5-5-5-5-5-4-4-4-4-4-4-------------|

[Hook 2]
(guitar 1)
                           PM   PM PM                PM-----
D|-----------------------------------------------------------|
A|-----------------------------------------------------------|
F|-----------------------------------------------------------|
C|---------------------------------------------------------7-|
G|-----------------------------------------------------7-8---|
A|11b--11b--11b--11b--11b--0-0--0--0-0-10b--10b--10b-0-------|
                           
                           PM                 PM-------------
D|------------------------------------------------------------|
A|------------------------------------------------------------|
F|----------------------------8-8-8-8-8-8-8-8-----7/8-5h7---5-|
C|----------------------------------------------5---------8---|
G|----------------------------6-6-6-6-6-6-6-6-3---------------|
A|11b--11b--11b--11b--11b--0--0-0-0-0-0-0-0-0-----------------|

                           PM   PM PM                PM
D|-------------------------------------------------------------|
A|-------------------------------------------------------------|
F|-------------------------------------------------------------|
C|-----------------------------------------------------10p7----|
G|----------------------------------------------------------8p7|
A|11b--11b--11b--11b--11b--0-0--0--0-0-10b--10b--10b-0---------|

                           PM PM          PM  PM   
D|--------------------------------------------------5---5-6-8-|
A|------------------------------------------------6---6-------|
F|--------------------------------7/8-5h7---5---7-------------|
C|------------------------------5---------8---7---------------|
G|----------------------------3-------------------------------|
A|11b--11b--11b--11b--11b--0----------------------------------|

(guitar 2)
                      PM   PM PM PM           PM
D|----------------------------------------------------|
A|----------------------------------------------------|
F|--------------------------------------------------7-|
C|----------------------------------------------7-8---|
G|----------------------------------------------------|
A|7b--7b--7b--7b--7b--0-0--0--0-0--6b--6b--6b-0-------|

                     PM
D|--------------------------------------------------------------|
A|--------------------------------------------------------------|
F|-----------------------1010101010101010-----12/13-10h12----10-|
C|-----------------------------------------10-------------13----|
G|-----------------------8-8-8-8-8-8-8-8-8----------------------|
A|7b--7b--7b--7b--7b--0--0-0-0-0-0-0-0-0------------------------|

                      PM   PM PM PM           PM
D|-------------------------------------------------------|
A|-------------------------------------------------------|
F|----------------------------------------------10p7-----|
C|---------------------------------------------------8p7-|
G|-------------------------------------------------------|
A|7b--7b--7b--7b--7b--0-0--0--0-0--6b--6b--6b-0----------|

                      PM PM PM            PM    PM PM  
D|-------------------------------------------------------10----10-11-13-|
A|----------------------------------------------------11----11----------|
F|----------------------------12/13-10h12----10----12-------------------|
C|-------------------------10-------------13----12----------------------|
G|-----------------------8----------------------------------------------|
A|7b--7b--7b--7b--7b--0-------------------------------------------------|

[Shuggahriffery,5/4 time sig change]
(both guitars)
  >
D|---------------------------------------------------------------------------|
A|---------------------------------------------------------------------------|
F|---------------------------------------------------------------------------|
C|---------------------------------------------------------------------------|(x2)
G|---------------------------------------------------------------------------|
A|0--------------------------------------------------------------------------|

(lo-fi guitar)
D|------------------------------------------------------------------|
A|------------------------------------------------------------------|
F|8-8-8-8-8-8---8-8-8-8-8-8-8\7-7-7-7-7---7-7-7-7-7-7-7-7-7-7-7-7---|
C|------------------------------------------------------------------|(x4)
G|6-6-6-6-6-6---6-6-6-6-6-6-6\5-5-5-5-5---5-5-5-5-5-5-5-5-5-5-5-5---|
A|0-0-0-0-0-0---0-0-0-0-0-0-0-0-0-0-0-0---0-0-0-0-0-0-0-0-0-0-0-0---|

(both guitars, lo-fi rhythm continues)
D|----------------------------------------------------------------------------------------|
A|----------------------------------------------------------------------------------------|
F|----------------------------|-----------------------------------|-----------------------|
C|-----------------4-----3----|-----------------------------------|4-----3-----1----------|
G|5-----3---------------------|5-----3----------------5-----3-----|-----------------------|(x4)
A|--3-0---2-0--0-0---6-5---5-4|--3-0---2-0--0-0--0-0----3-0---2-0-|--6-5---5-4---3-2-1-2-1|
triplets ^^^

  fill>
D|-------|-----------------------------------------------------------------------------|
A|-------|-----------------------------------------------------------------------------|
F|-------|-----------------------------------------------------------------------------|
C|-------|------4-----3----|-----------------------------------|4-----3-----1----------|
G|3------|-----------------|5-----3----------------5-----3-----|-----------------------|
A|--0-1--|--0-0---6-5---5-4|--3-0---2-0--0-0--0-0----3-0---2-0-|--6-5---5-4---3-2-1-2-1|

(supermoon lead)
            N  N  N  N  N  N  N  N  N  N  N  N  N  N  N N N N N N N N N N
D|10b11br10-10-10-10-10-10-10-10-10-11-11-11-11-11-11-8-8-8-8-8-8-7-7-7-7|
A|-----------------------------------------------------------------------|
F|-----------------------------------------------------------------------|
C|-----------------------------------------------------------------------|
G|-----------------------------------------------------------------------|
A|-----------------------------------------------------------------------|

  N  N  N  N  N  N  N  N  N  N  N  N  N  N  N  N  N  N  N  N
D|10-10-10-10-10-10-10-10-11-11-11-11-11-11-13-13-13-13-13-13b14----|
A|------------------------------------------------------------------|
F|------------------------------------------------------------------|
C|------------------------------------------------------------------|
G|------------------------------------------------------------------|
A|------------------------------------------------------------------|

[Verse 2]
(both guitars)
     PM PM    PM PM  PMPM    PM PM PM-------------------                     PM PM  PM    PM-------
D|--------------------------------|-------------------------|---0-----------------------------------|
A|--------------------------------|-------------------------|/3-------------------------------------|
F|--------------------------------|-------------------------|-----5-4-3-----------------------------|
C|6--------4--------------4-------|----------------------3*-|-----------5-4-------------------------|
G|5--3--0--3--2--0---0-0--3--2--0-|0-0-0--0--0-0-0--0----3*-|----------------5-5-5--5--5--5--4-4-4--|
A|---3--0-----2--0---0-0-----2--0-|0-0-0--0--0-0-0--0--0----|----------------3-3-3--3--3--3--2-2-2--|

  PM PM    PM PM PM PM  PM PM PM PM
D|----------------------------------------|------------------------|
A|-------------------------------------8\-|---8----------14--------|
F|-------------------------------------11\|11---11-11/17----17-----|
C|---------------3-3-3--3--3-3-3--3-------|--------------------15--|
G|4--4--4--4--4--0-0-0--0--0-0-0--0-------|------------------------|
A|2--2--2--2--2--0-0-0--0--0-0-0--0--0----|------------------------|

(guitar 1)
     PM PM    PM PM  PMPM    PM PM PM-------------------                     PM PM  PM    PM-------
D|--------------------------------|-------------------------|---------------------------------------|
A|--------------------------------|-------------------------|---------------------------------------|
F|7--------5--------------5-------|-------------------------|---0-----------------------------------|
C|6--------4--------------4-------|----------------------3*-|/6-------------------------------------|
G|5--0--0--3--0--0---0-0--3--0--0-|0-0-0--0--0-0-0--0-------|-----8-7-6------101010-10-10-10-9-9-9--|
A|---0--0-----0--0---0-0-----0--0-|0-0-0--0--0-0-0--0--0----|-----------9-8--8-8-8--8--8--8--7-7-7--|

  PM PM    PM PM PM PM  PM PM PM PM
D|----------------------------------------|
A|-------------------------------------12\|
F|-------------------------------------15\|
C|---------------3-3-3--3--3-3-3--3-------|
G|5--5--5--4--4--0-0-0--0--0-0-0--0-------|
A|3--3--3--2--2--0-0-0--0--0-0-0--0--0----|

(guitar 2)
     PM PM    PM PM  PMPM    PM PM PM-------------------                     PM PM  PM    PM-------
D|--------------------------------|-------------------------|---------------------------------------|
A|--------------------------------|-------------------------|----------0----------------------------|
F|7--------5--------------5-------|----------------------3*-|--------5------------------------------|
C|6--------4--------------4-------|-------------------------|0h2h3-3--------------------------------|
G|5--0--0--3--0--0---0-0--3--0--0-|0-0-0--0--0-0-0--0-------|------------5---101010-10-10-10-9-9-9--|
A|---0--0-----0--0---0-0-----0--0-|0-0-0--0--0-0-0--0--0----|----------------8-8-8--8--8--8--7-7-7--|

  PM PM    PM PM PM PM  PM PM PM PM
D|----------------------------------------|----------------|
A|-------------------------------------12\|----------------|
F|-------------------------------------15\|8-8-8-8\7-7-7-7-|
C|---------------3-3-3--3--3-3-3--3-------|----------------|
G|5--5--5--4--4--0-0-0--0--0-0-0--0-------|6-6-6-6\5-5-5-5-|
A|3--3--3--2--2--0-0-0--0--0-0-0--0--0----|0-0-0-0-0-0-0-0-|

[Hook 3, SPITE]
(guitar 1)
                      PM   PM PM PM           PM
D|----------------------------------------------------|
A|----------------------------------------------------|
F|--------------------------------------------------7-|
C|----------------------------------------------7-8-7-|
G|----------------------------------------------7-8---|
A|7b--7b--7b--7b--7b--0-0--0--0-0--6b--6b--6b-0-------|

                     PM
D|------------------------------------------------------------|
A|------------------------------------------------------------|
F|-----------------------1010101010101010------19/20-17h19----|
C|------------------------------------------17-------------20-|
G|-----------------------8-8-8-8-8-8-8-8-15-------------------|
A|7b--7b--7b--7b--7b--0--0-0-0-0-0-0-0-0----------------------|

                      PM   PM PM PM           PM
D|-------------------------------------------------------|
A|-------------------------------------------------------|
F|----------------------------------------------10p7-----|
C|---------------------------------------------------8p7-|
G|-------------------------------------------------------|
A|7b--7b--7b--7b--7b--0-0--0--0-0--6b--6b--6b-0----------|

                      PM PM PM  PM PM PM PM PM PM PM PM PM PM PM PM PM          
D|----------------------|----------------------------------------------|
A|----------------------|----------------------------------------------|
F|----------------------|----------12-12-13-13-10-10-12-12-------10-10-|
C|----------------------|----10-10-------------------------13-13-------|
G|----------------------|8-8-------------------------------------------|
A|7b--7b--7b--7b--7b--0-|----------------------------------------------|

D|------------------10-10-------10-10-11-11-13-13-|
A|------------11-11-------11-11-------------------|
F|------12-12-------------------------------------|
C|12-12-------------------------------------------|
G|------------------------------------------------|
A|------------------------------------------------|

(guitar 2)
                      PM   PM PM PM           PM
D|----------------------------------------------------|
A|----------------------------------------------------|
F|----------------------------------------------------|
C|--------------------------------------------------3-|
G|----------------------------------------------3-4---|
A|3b--3b--3b--3b--3b--0-0--0--0-0--2b--2b--2b-0-------|

                     PM
D|-------------------------------------------------------|
A|-------------------------------------------------------|
F|-----------------------8-8-8-8-8-8-8-8-----7/8-5h7---5-|
C|-----------------------------------------5---------8---|
G|-----------------------5-5-5-5-5-5-5-5-3---------------|
A|3b--3b--3b--3b--3b--0--0-0-0-0-0-0-0-0-----------------|

                      PM   PM PM PM           PM
D|-------------------------------------------------------|
A|-------------------------------------------------------|
F|-------------------------------------------------------|
C|----------------------------------------------6p3------|
G|--------------------------------------------------4p3--|
A|3b--3b--3b--3b--3b--0-0--0--0-0--2b--2b--2b-0----------|

                      PM PM PM            PM    PM PM  
D|----------------------|--------------------------------------------5-5-----5-5-6-6-8-8|
A|----------------------|----------------------------------------6-6-----6-6------------|
F|----------------------|--------7-7-8-8-5-5-7-7-----5-5-----7-7------------------------|
C|----------------------|----5-5-----------------8-8-----7-7----------------------------|
G|----------------------|3-3------------------------------------------------------------|
A|3b--3b--3b--3b--3b--0-|---------------------------------------------------------------|

[Madness]
(both guitars)
D|------------------------------------------|----------------------|----------------------|
A|------------------------------------------|----------------------|-----0----------------|
F|------------------------------------------|-----0----------------|--/3------------------|
C|----------------/4------------------------|x-/6------------------|x------5-4-3----------|
G|5-----3b-------------------5-----3b-------|-------8-7-6-----9-8--|-------------5-4-5-4--|(x2)
A|--3-0-----2b--0----6-5--4----3-0-----0--2b|-------------9-8-7-6--|-----------------3-2--|

(guitar 1)
D|------------------------------------|--------------------------------------|
A|------------------------------------|------------------------------0-------|
F|------------------------------0-----|---------------------------/3---------|
C|---------------------------/6-------|--------------------------------5-4---|
G|--------------------------------8-7-|----------------3*--------------------|
A|0--1--0--3-2-0-2b--0--1--0----------|0--1--0--3-2-0-----0--1--0------------|

(guitar 2)
                                     ~                                   ~
D|------------------------------------|---------------------------/6-7-------|
A|---------------------------/9-8-----|--------------------------------8-7---|
F|--------------------------------10-9|--------------------------------------|
C|------------------------------------|----------------3*--------------------|
G|------------------------------------|--------------------------------------|
A|0--1--0--3-2-0-2b--0--1--0----------|0--1--0--3-2-0-----0--1--0------------|

(both guitars)
D|------------------------------------------|----------------------|----------------------|
A|------------------------------------------|----------------------|-----0----------------|
F|------------------------------------------|-----0----------------|--/3------------------|
C|----------------/4------------------------|x-/6------------------|x------5-4-3----------|
G|5-----3b-------------------5-----3b-------|-------8-7-6-----9-8--|-------------5-4-5-4--|(x2)
A|--3-0-----2b--0----6-5--4----3-0-----0--2b|-------------9-8-7-6--|-----------------3-2--|

D|----------|--------------|
A|----------|--------------|
F|----------|--------------|
C|----------|--------------|
G|5-----3b--|----5-----3b--|
A|--3-0-----|------3-0-----|


************************************

| x   Dead note
| h   Hammer-on
| p   Pull-off
| >   Accented note
| b   Bend
| br  Bend release
| /   Slide up
| \   Slide down
| ~   Vibrato
| PM  Palm mute
| N   Tremolo
| *   Pinch Harmonic

************************************

            
            
Suggest correction
Creating personal tab
Creating personal tab
You can edit any tab online and save it as your Personal.

You can edit, replace or remove any tab part or add personal notes – all changes will be seen only by you.

Personal tabs can be accessed anytime from any device, even offline.
Learn more »
Give kudos to tab author, rate the tab!
1 2 3 4 5
comments
print report bad tab
guest
You may want to rate the tab now too:
select rating
Wanna post a correction for this tab? Suggest correction