Oops, an error
Loading. Please wait.

Arborize - Naturalize bass

10 views 1 this week
no commentswrite comment
1 2 3 4 5
3 more votes to show rating
add to favorites
×
Save as Personal and add changes to this tab that will be seen only by you. Learn more ›
×
You can save this tab as Personal to edit and correct it or add notes. All changes will be seen only by you. Learn more »
launch autoscroll
font size
0
reset
guitar tuner
edit
Autoscroll
slow
fast
+/-
esc
set tempo
stop
About this tab version
This is the original bass tab composed by myself for Naturalize by Arborize. Was this info helpful? Yes No
Naturalize by Arborize tabbed by Koral Robustelli
played on a 5-string bass in standard tuning 



[Intro]

G|-------------------|---------------------------|---------------------------|
D|-------------------|---------------------------|---------------------------|
A|7h8-7--------------|-------5-------------------|-------5-------------7h8-7-|
E|-------8-7---------|-0---0----4-3--0--0-5------|-0---0----4-3--0--0--------|
B|------------6-5--5\|-----------------------6-5b|---------------------------|


G|-------------------|----------------------------------|-------------------------|
D|-------------------|----------------------------------|------------------------9|
A|7h8-7--------------|----------------------------------|-------------------------|
E|-------8-7---------|--3b--0-0-0-0--3b--5-5-5-5-2-2-2-2|-3b--0-0-0-0------8------|
B|------------6-5--5\|----------------------------------|--------------0-0---0-0--|


G|-------------------|---------------------------|---------------------------|------------9/12-t17\16p12---|
D|-------------------|---------------------------|-----------------10p9------|7-------------------------g14|
A|7h8-7--------------|-------5-------------------|------------7/10------10---|--8-7-7-7/8------------------|
E|-------8-7---------|-0---0----4-3--0--0-5------|5------------------------12|-----------------------------|
B|------------6-5--5\|-----------------------6-5b|--6-5-3/5/6----------------|-----------------------------|


G|-------------------|-------------------------|-----------------------------|
D|-------------------|-------------------------|-----------------------------|
A|7h8-7--------------|-------------------------|-----------------------------|
E|-------8-7---------|--0---0---0--------------|--0---0---0-3--2--2-3-2-0----|
B|------------6-5--5\|-------------5-5-5--4-4-4|-----------------------------|


[Verse]

G|----------------------------------------|-----------------------------------------------|
D|----------------------------------------|-----------------------------------------------|
A|----------------------------------------|-----------------------------------------------|
E|----------------------------------------|2-3-2-0--------------------8--7---5--4---------|
B|0-0--0----0-0----7-8-0-5--0--3-2--2-2--2|----------x-x-x-x-x-0-0-0---------------1--1--1|



G|-------|------------------------------|----------------------------------------|
D|-------|------------------------------|----------------------------------------|
A|-------|------------------------------|----------------------------------------|
E|2-3-2-0|----------------/8--7---5--4--|2-3-2-0---------------------7--10\5--8-7|
B|-------|0-0--0----0-2-0---------------|-----------x-x-x-x-x-0-0-0--------------|


[SET ME FREE]

G|-------------------------------|
D|-------------------------------|
A|-------------------------------|
E|8--7--5------------------------|
B|--------8--7--5-3--2--1-1--1--1|


[Chorus]

G|-----------------------------------|----------------------------------------------------|
D|-----------------------------------|----------------------------------------------------|
A|-----------------------------------|----------------------------------------------------|
E|7----10----5----7--8--7-7----5----7|--------------------2--2--2--3--3--3----------------|
B|-----------------------------------|0---0--0--0-0--0--0-0--0--0--0--0--0-0----x--x-x-x-x|



G|-----------------------------------|----------------------------------------------------|
D|-----------------------------------|----------------------------x-----------------------|
A|-----------------------------------|-----------------------------x----------------------|
E|7----10----5----7--8--7-7----5----7|----------------------2-------x-----------------3--3|
B|-----------------------------------|0---0-0-0-0--x-0--x-0----0-0---x--x-x-x-x-0--0------|


[Post-Chorus Breakdown Interlude]

G|---0-------------|-----------------------------|----------------|---------------------------------------|
D|/4---------------|----------------3-----------3|----------7--7-5|-------7-----------------5------------5|
A|-----------------|-----------------------------|----5/7h8-------|---------------------------------------|
E|-----0-0-0-0--4-3|4--3-3-3-3-3-3-----3--3-3-3--|3h6-------------|4-4--4---4-4--3--3-3-3-3---3--3-3-3-3--|
B|-----------------|-----------------------------|----------------|---------------------------------------|


[Verse 2]

G|-------------------------------(n)9-|--------------------------------------------|
D|------------------------------------|--------------------------------------------|
A|------------------------------------|-------------------------------------2------|
E|7h8-7---------------0--0--2---------|7h8-7------------0--0-0--1--2-----------3--2|
B|------6\-2-3-2-3------------3-2-0---|------6\-2-3-2-3--------------3-2-0---------|



G|--------------------------------------------------|----------------------------------------------------|
D|--------------------------------------------------|----------------------------------------------------|
A|--------------------------------------------------|----------------------------------------------------|
E|7h8-7-------------8--7--5-------------------------|2-3-2-0---------2-3-2-0---------8--7---5--4---------|
B|------6\-2-3-2-3-----------8--7--5-3--2--1-1--1--1|-------------------------0-0-0---------------1--1--1|



G|------------------------------|-------------------------9-------------------|
D|-----------------x------------|---------------------------------------------|
A|------------------x-----------|---------------------------------------------|
E|2-3-2-0-5-3-2-0-0--x-0-5-3-2-0|2-3-2-0-5-3-2-0-8-8--8-8---8--8-8-8-8--------|
B|------------------------------|---------------------------------------------|



G|-------------------------(n)9-|--------------------------------------------|
D|-----------------x------------|--------------------------------------------|
A|------------------x-----------|--------------------------------------------|
E|2-3-2-0-5-3-2-0-0--x-0--0-0---|2-3-2-0-5-3-2-0--/12\1/12\1/12\-------------|
B|------------------------------|--------------------------------------------|
                                    bass slide on the whammy ^^




[Chorus]

G|-----------------------------------|----------------------------------------------------|
D|-----------------------------------|----------------------------------------------------|
A|-----------------------------------|----------------------------------------------------|
E|7----10----5----7--8--7-7----5----7|--------------------2--2--2--3--3--3----------------|
B|-----------------------------------|0---0--0--0-0--0--0-0--0--0--0--0--0-0----x--x-x-x-x|



G|-----------------------------------|----------------------------------------------------|
D|-----------------------------------|----------------------------x-----------------------|
A|-----------------------------------|-----------------------------x----------------------|
E|7----10----5----7--8--7-7----5----7|----------------------2-------x-----------------3--3|
B|-----------------------------------|0---0-0-0-0--x-0--x-0----0-0---x--x-x-x-x-0--0------|

[Post Chorus]

G|----------------------------------------|-------------------------|
D|----------------------------------------|-------------------------|
A|----------------------------------------|-------------------------|
E|7-7--7-7-7--7/10-10--10-10-10\5-5--5-5-5|2-2-x-x-x-x-x-0-2-2--3--2|
B|----------------------------------------|-------------------------|



G|----------------------------------------|------------------------------------|
D|----------------------------------------|------15----------------15----------|
A|----------------------------------------|------------------------------------|
E|7-7--7-7-7--7/10-10--10-10-10\5-5--5-5-5|12/13----13\12-0--12/13----13\12----|
B|----------------------------------------|---------------------------------13\|



G|--------------------------------------------------------------------------|
D|--------------------------------------------------------------------------|
A|14-14--14-14-14--13-13-13--13-13-13\--9--9---9--9--9----------------------|
E|15-15--15-15-15--15-15-15--15-15-15\-10-10--10-10-10/12--------/10--------|
B|---------------------------------------------------------12-10-----10-9---|

[SpaceJam]

G|----------------------------9b---------------------------------------------|
D|----------------------------9b---------------------------------------------|
A|---------------7\3---------------------------------------------------------|
E|0--------------------------------------------------------------------------|
B|---------------------------------------------------------------------------|


[outro breakdown]

G|-------------------------------------|--------------------------------------------------|
D|-------------------------------------|--------------------------------------------------|
A|-------------------------------------|--------------------------------------------------|
E|------------5-5-5--2--2h5p2p0--------|---------------------------------2----------3-2---|
B|2----2---2--------------------2h3p2p0|0----0-0---0--0-0-0--0-0-0--0--0---3--2---2-----0-|



G|---------------------------------------------------------------------------|
D|---------------------------------------------------------------------------|
A|x--------------------------------------------------------------------------|
E|-x----------------2-3-2-3------2----8---7--7--------2-----3b----3b-----3b-0|
B|--x-0----0----0--------------0----0---0------8-7-0----3-2------------------|



G|---------------------------------------------------------------------------|
D|---------------------------------------------------------------------------|
A|---------------------------------------------------------------------------|
E|------------------------3-3------------------------------------------------|
B|0---0---0---0-0-0-0--0--0-0------------------------------------------------|





************************************

| x   Dead note
| g   Grace note
| (n) Ghost note
| h   Hammer-on
| p   Pull-off
| t   Tapping
| b   Bend
| /   Slide up
| \   Slide down

************************************

            
            
Suggest correction
Creating personal tab
Creating personal tab
You can edit any tab online and save it as your Personal.

You can edit, replace or remove any tab part or add personal notes – all changes will be seen only by you.

Personal tabs can be accessed anytime from any device, even offline.
Learn more »
Give kudos to tab author, rate the tab!
1 2 3 4 5
comments
print report bad tab
guest
You may want to rate the tab now too:
select rating
Wanna post a correction for this tab? Suggest correction