Oops, an error
Loading. Please wait.

Archers New Rival - Take Me Away Tab

75 views 1 this week
no commentswrite comment
1 2 3 4 5
please rate
add to favorites
launch autoscroll
font size
0
reset
how to read this tab
guitar tuner
Autoscroll
slow
fast
+/-
esc
set tempo
stop
Help us to improve Ultimate-Guitar.com Take our survey!
×
Archer's New Rival is a band from orlando, FL just released our e.p. more info and
downloads can be found at : www.myspace.com/archersnewrival

Artist:Archer's New Rival
Song:"Take me away"
Album:Broken Arrows and Gunshot Wounds e.p.

Tabbed by: Daniel
Email:Spitfyr21@aol.com

Tuning: GADGBE (Lead guitar)

intro:2x's (Clean)
e|-----------------------------------------------------------------------------|
B|-----------------------------------------------------------------------------|
G|-----------------------------------------------------------------------------|
D|----9----9----9/11-9--------------------------2---2--------------------------|
A|------7----7-----------11-11/12\11-9-----4---4----4/6------------------------|
G|--6----6----6-------------------------------2----2---2-2/4-------------------|

e|-----------------------------------------------------------------------------|
B|-----------------------------------------------------------------------------|
G|-----------------------------------------------------------------------------|
D|----------------------------------------------9---2-----6--------4-----------|
A|---11-9--11-9----11/14-11-9-9h11p9---4--------7-----6--6---------------------|
G|-9------9-------9-----------------------------2----2-6---6-4-----------------|

Chorus:2x's (Listen to cd for the strumming pattern) (distortion)
e|-----------------------------------------------------------------------------|
B|-----------------------------------------------------------------------------|
G|-----------------------------------------------------------------------------|
D|-9------------7----6-----------------------------7-6-------------------------|
A|-7---11--9----4----4---7-4-4--2--4--7--6--------7----------------------------|
G|-6---9-- 9-----x----x------x-x--2--2--6--4-----------------------------------|
 So can you take me away....

Pre-breakdown part:2x's (Clean)
e|-----------------------------------------------------------------------------|
B|-----------------------------------------------------------------------------|
G|-----------------------------------------------------------------------------|
D|-----------------------------------------------------------------------------|
A|-7-7-7--7-7-7-11-11-11-2-4-4--4-4-4-6-6-6------------------------------------|
G|-6-6-6--6-6-6-9--9---9---2-2-2--2-2-2-4-4-4----------------------------------|

Breakdown:2x's (distortion-palm muted)
e|-----------------------------------------------------------------------------|
B|-----------------------------------------------------------------------------|
G|-----------------------------------------------------------------------------|
D|-----------------------------------------------------------------------------|
A|-7-7-7--7-7-7-11-11-11-2-4-4--4-4-4-6-6-6------------------------------------|
G|-6-6-6--6-6-6-9--9---9---2-2-2--2-2-2-4-4-4----------------------------------|
     x x x    x x x  x   x   x     x x x   x x x   x x x

Verses 1 and 2 are the same:3x's

"Hey baby, you know that I wouldn't do anything to hurt you..."
e|-----------------------------------------------------------------------------|
B|-----------------------------------------------------------------------------|
G|-----------------------------------------------------------------------------|
D|-----------------------------------------------------------------------------|
A|------7--6--9--7--6--6h7-----------------------------------------------------|
G|-6-6--6--6--6--6---6-------2x's----------------------------------------------|
    x  x   x   x  x   x    x

" Would you mind to take back , the old and start over all new..."
e|-----------------------------------------------------------------------------|
B|-----------------------------------------------------------------------------|
G|-----------------------------------------------------------------------------|
D|---------------------------------------6--4----------------------------------|
A|------2--4--2--4--2--4------6--4---------7-6---------------------------------|
G|-2-2--2--2--2--2--2----4-4--4--4--4--4-4-------------------------------------|
    x x   x   x   x   x  x      x x   x   x   x   x x

Bridge:
e|-----------------------------------------------------------------------------|
B|-----------------------------------------------------------------------------|
G|-----------------------------------------------------------------------------|
D|----------------------------9------------------------------------------------|
A|--7-7-6-6-9-9-7-7-6-7-7------------------------------------------------------|
G|--6-6-6-6-6-6-6-6-6-6-6------------------------------------------------------|
                                       " Or would you stay away..."
e|-----------------------------------------------------------------------------|
B|-----------------------------------------------------------------------------|
G|-----------------------------------------------------------------------------|
D|-----------------------------------------------------------------------------|
A|--7-7-6-6-9-9-7-7-6-7---2----------------------------------------------------|
G|--6-6-6-6-6-6-6-6-6-6---2----------------------------------------------------|
                                           "And go home..."
e|-----------------------------------------------------------------------------|
B|-----------------------------------------------------------------------------|
G|-----------------------------------------------------------------------------|
D|----------------------------9------------------------------------------------|
A|--7-7-6-6-9-9-7-7-6-7-7------------------------------------------------------|
G|--6-6-6-6-6-6-6-6-6-6-6------------------------------------------------------|
                                         " Or would you stay away..."
e|-----------------------------------------------------------------------------|
B|-----------------------------------------------------------------------------|
G|-----------------------------------------------------------------------------|
D|--------------------------------------------------------9--------------------|
A|--7-7-6-6-9-9-7-7-6-7---7-7-6-6-9-9-7-7-6-7-7--------------------------------|
G|--6-6-6-6-6-6-6-6-6-6---6-6-6-6-6-6-6-6-6-6-6--------------------------------|
                                     " And leave me all alone.."


order of the song:
intro
chorus
pre-breakdown
breakdown
verse
bridge
chorus
verse
bridge
chorus
breakdown (1st 2x's muted, 2nd 2 strum open)


| /  slide up
| \  slide down
| h  hammer-on
| p  pull-off
| ~  vibrato
| +  harmonic
| x  Mute note
=========================================================================
comments
We did not receive enough feedback on this tab! Please rate:
print report bad tab
1 2 3 4 5
I want to post or [tab]
guest
You may want to rate the tab now too:
select rating
Please do not post tabs as comments. Select "correction" instead!