Oops, an error
Loading. Please wait.

Arden - A Slow Spiral Geoffrey Tab

98 views 1 this week
no commentswrite comment
1 2 3 4 5
please rate
add to favorites
launch autoscroll
font size
0
reset
how to read this tab
guitar tuner
Tab Pro tools
  • play this tab
  • loop segment
  • change instrument
  • show fretboard
  • metronome
×
Best way to learn
"Arden - A Slow Spiral Geoffrey"
Autoscroll
slow
fast
+/-
esc
set tempo
stop
Contributor
Guitar Tab for “A Slow Spiral Geoffrey” by Arden

Arden is:
Laurie Huebschman- vocals/piano
Kevin Krause- bass/vocals
Neal Karkhanis- guitar
Lee Cumberland- guitar/vocals/percussion
Jon Lehet- drums


Here are the chords used in this song:

A Major  Aminor   E Major  C#minor   B     B/C   G#minor   G Major  F#minor

e|--0------0---------0-------4-------0------------4--------3---------2------|
B|--2------1---------0-------5-------0-----4------4--------3---------2------|
G|--2------2---------1-------6-------4-----5------4--------4---------2------|
D|--2------2---------2-------6-------4-----4------6--------5---------4------|
A|--0------0---------2-------4-------2-----3------6--------5---------4------|
E|-------------------0----------------------------4--------3---------4------|

Song Layout:

Verse- E Major, C#minor, A Major, B (first verse- guitar just scratches, second    
guitar plays lead line)

Pre-Chorus- A Major, C#minor, B, A Major, E Major, B

Chorus- C#minor, B, E Major, A Major, C#minor, B, A Major, Aminor

Bridge- G#minor, G Major, F#minor, B, B/C

Chords Under Solo- same as verses


2nd Verse Lead Line:

e|--0-----------------4----------------------------0------------------------|
B|-----0-----------0-----5--------4/5-----------2-----2-----2/4-----4-------|
G|--------1-----1-----------6----------6-----2-----------2-------4-----4—---|
D|-----------2-----------------6----------2---------------------------------|
A|--------------------------------------------------------------------------|
E|--------------------------------------------------------------------------|

e|--------------------------------------------------------------------------|
B|--4------4----------------------------------------------------------------|
G|-4/5--5-----5-------------------------------------------------------------|
D|--------------------------------------------------------------------------|
A|--------------------------------------------------------------------------|
E|--------------------------------------------------------------------------|

Solo

e|----------------------------12--------------------------------------------|
B|--------------12—14--14/16------9-----9--9/12\10--------------------------|
G|9--11/12/13-----------------------9-------------9--------9-----8------11-9|
D|----------------------------------------------------9/11----9-----10------|
A|--------------------------------------------------------------------------|
E|--------------------------------------------------------------------------|
Last Chorus Lead Line:

e|--0------------------0--------0-------------------------------------------|
B|-----2------------2-----1-----0-------------------------------------------|
G|--------2-----2------------2--1-------------------------------------------|
D|-----------2------------------2-------------------------------------------|
A|------------------------------2-------------------------------------------|
E|------------------------------0-------------------------------------------|

Key:

h - hammer on
p - pull off
b - bend string up
r - release bend
/ - slide up
\ - slide down
v - vibrato (sometimes written as ~)
t - right hand tap
x - play 'note' with heavy damping
comments
We did not receive enough feedback on this tab! Please rate:
print report bad tab
1 2 3 4 5
I want to post or [tab]
guest
You may want to rate the tab now too:
select rating
Please do not post tabs as comments. Select "correction" instead!