Oops, an error
Loading. Please wait.

Arlington Sleeps - Nineteen Eighty-Four Tab

128 views 6 this week
no commentswrite comment
1 2 3 4 5
please rate
add to favorites
launch autoscroll
font size
0
reset
how to read this tab
guitar tuner
Autoscroll
slow
fast
+/-
esc
set tempo
stop
Help us to improve Ultimate-Guitar.com Take our survey!
×
Author
Difficulty
Tuning
advanced
C# G# C# F# A# D#
Whole song is in C#.

Keep these forms when playing the lead in the beginning.
D|------\------\--------\---------\------\-------|
A|12----\-10---\--------\---------\------\-------|
D|---10-\----9-\-14-----\---------\-10---\-9-----|
G|12----\------\-----17-\-12-10-9-\----9-\-------|
B|------\------\--------\---------\------\----12-|
E|------\------\--------\---------\------\-------|

Intro [Delay] (ringing out the 12 fret on A string) / = Slide ~ = pull off
D|----------------------------------| 
A|12------10------------------------|               [I don't know the speci
D|----10/9--9/14----------10--9/10--|6x Keep Form    fic speed of my delay,
G|--12----------17/12~10~9--12------|                but it really isn't th
B|----------------------------------|               at fast]
E|----------------------------------|

Break (strum out these cords) [Delay optional for first couple strums]
D|----------------------------|
A|12--12--10--10101010101010--|
D|10--10---9---9-9-9-9-9-9-9--|
G|12--12----------------------|
B|----------------------------|
E|----------------------------|

Break Part II (fast pick this)
D|----------------------|
A|12-10-7-5-7-10-12-14--|
D|----------------------| [Its a pretty consistent picking pattern]
G|----------------------|
B|----------------------|
E|----------------------|

Verse * = Palm Mute; + = triplet; ~ = Hammer on; / = Slide         
D|77-5-7/*22-+222-222--77-5-7/*0-0~2~5-5-2/|R|1010-10-1010-10-101010-||
A|77-5-7/*22-+222-222--77-5-7/*0------3--2/|E|1212-12-1212-12-121212-||
D|77-5-7/*22-+222-222--77-5-7/*0-----------|P|-----------------------||2x
G|-----------------------------------------|E|-----------------------||
B|-----------------------------------------|A|-----------------------||
E|-----------------------------------------|T|-----------------------||

Breakdown + = Triplet
D|2-+222/--------------------1010-+999-+555--|
A|2-+222/-7-9-10-7---10-9-7--1010-+999-+555--|
D|2-+222/----------9---------1010-+999-+555--|4x
G|-------------------------------------------|
B|-------------------------------------------|
E|-------------------------------------------|

Bridge ~ = Pull Off but kinda bend strings down first; ^ = Slam Palm down
D|2~0-2~0-2~0-^2~0-2~0-2~0-^2~0-2~0-2~0-^-999--555--|
A|2~0-2~0-2~0-^2~0-2~0-2~0-^2~0-2~0-2~0-^-999--555--|
D|2~0-2~0-2~0-^2~0-2~0-2~0-^2~0-2~0-2~0-^-999--555--|2x
G|--------------------------------------------------|
B|--------------------------------------------------|
E|--------------------------------------------------|

    ~ = hammer on; ^ = pull off; / = slide; * = pitch harmonic
D|2~0-2~0-2~0-^2~0-2~0-2~0-^2~0-2~0-2~0-^-----------------|
A|2~0-2~0-2~0-^2~0-2~0-2~0-^2~0-2~0-2~0-^-5~7---------*7--|  [Grab some feed
D|2~0-2~0-2~0-^2~0-2~0-2~0-^2~0-2~0-2~0-^----5~7/9/7^5----|   back on that l
G|--------------------------------------------------------|   ast note]
B|--------------------------------------------------------|
E|--------------------------------------------------------|

Break II [These notes are on the an's of the beat]
D|-------------------|
A|-10--101010101010--|
D|--9---9-9-9-9-9-9--|
G|-------------------|
B|-------------------|
E|-------------------|

Break Part II (fast pick this)
D|----------------------|
A|12-10-7-5-7-10-12-14--|
D|----------------------| [Its a pretty consistent picking pattern]
G|----------------------|
B|----------------------|
E|----------------------|

Chorus [Delay] / = Slide; ~ = Hammer On/Pull Off; * = Squeal
D|-------------------------------|
A|12----*10----------------------|    [Form is similar to Intro]
D|--10/9---------------10/12/10--|4x 
G|----------14---9~10~9----------|
B|------------17-----------------|
E|-------------------------------|

Outro [Straight Picking on the 7th, Unwind(Go Crazy) on the 12]
D|7777777777--------------------------------------------------------|
A|7777777777--121212121212121212121212--12--12--12--12-12-12----12--|
D|7777777777--101010101010101010101010--10--10--10--10-10-10----10--|
G|------------121212121212121212121212--12--12--12--12-12-12----12--|
B|------------------------------------------------------------------|
E|------------------------------------------------------------------|

Song written by Arlington Sleeps, Tabbed by Michael Muccioli from Arlington Sleeps.
myspace.com/arlingtonsleeps      myspace.com/michaelyourcrazy
Suggest correction
What's this?
You can suggest a correction to this tab. Community and Mods will review your correction and vote to approve or reject it.
comments
We did not receive enough feedback on this tab! Please rate:
print report bad tab
1 2 3 4 5
guest
You may want to rate the tab now too:
select rating
Please do not post tabs as comments. Select "correction" instead!