Oops, an error
Loading. Please wait.

Arm The Poor - Its Not A Tumor Bass Tab

119 views 1 this week
no commentswrite comment
1 2 3 4 5
3 more votes to show rating
add to favorites
launch autoscroll
font size
0
reset
guitar tuner
Autoscroll
slow
fast
+/-
esc
set tempo
stop
Help us to improve Ultimate-Guitar.com Take our survey!
×
shits dedicated 2 the 4 funniest white dudes i know that all JUST HAPPEN 2 be in the 
band
with luv,
 $uga $eanny De light
intro
G--8-7-5-----|
D--------8---|
A------------|
E------------|
main riff
G-------------------------------------12-12----10-10-----8-8------------|
D------------------7-------7----------12-12----10-10-----8-8------------|
A----5-85--5-85-5-8---8-5-8---8--10-10-10-10-8--8--8--6--6-6-6-6-5------|
E--6-----6---------------------------------------------------------8-6--|
chorus
G------------------------------------------|
D------------------------------------------|
A---------6/88888888/66666666/888888-6-5---|
E-66666666-------------------------------8-|
bridge
G--------------------------------|
D--------------------------------|
A--------------------------------|
E-333111666-8/6-8/6-8/6----------|
Suggest correction
Give kudos to tab author, rate the tab!
1 2 3 4 5
comments
print report bad tab
guest
You may want to rate the tab now too:
select rating
Wanna post a correction for this tab? Suggest correction