Oops, an error
Loading. Please wait.

Artebe - July Bass Tab

29 views 1 this week
no commentswrite comment
1 2 3 4 5
3 more votes to show rating
add to favorites
launch autoscroll
font size
0
reset
guitar tuner
Autoscroll
slow
fast
+/-
esc
set tempo
stop
Help us to improve Ultimate-Guitar.com Take our survey!
×
Author
Difficulty
novice
1st / 3rd verse  

G|-------------------------------------------|
D|-------------------------------------------|
A|-------------------------------------------|
E|--8---8--6--8---8--6--8--6---8--6--8-------|

2nd / 4th verse 

G|-------------------------------------------|
D|-------------------------------------------|
A|--8---8--6--8---8--6--8--6---8--6----------|
E|-----------------------------------8-------|

Refrain

G|-------------------------------------------|
D|-------------------------------------------|
A|-------------------------------------------|
E|--4-4/--6-6/--8-8-8-8--4-4/--6-6/--8-8-8-8-|

Suggest correction
Give kudos to tab author, rate the tab!
1 2 3 4 5
comments
print report bad tab
guest
You may want to rate the tab now too:
select rating
Wanna post a correction for this tab? Suggest correction