Oops, an error
Loading. Please wait.

Artebe - Strange Forces Bass Tab

42 views 3 this week
no commentswrite comment
1 2 3 4 5
please rate
add to favorites
launch autoscroll
font size
0
reset
guitar tuner
Autoscroll
slow
fast
+/-
esc
set tempo
stop
Help us to improve Ultimate-Guitar.com Take our survey!
×
Author
Difficulty
novice
Strange Forces, Artebe

Refrain

G|----------|-----------|-----------|-----------|-----------|
D|----------|-----------|-----------|-----------|-----------|
A|----------|-6-8-6---6-|-6-8-6---6-|-6-8-6-----|-6-8-6-----|
E|----------|-------8---|-------8---|-------8---|-------8---|

Solo 

G|----------|-----------|-----------|-----------|-----------|
D|----------|-----------|-----------|-----------|-----------|
A|-8-6-8-6--|-8-6-8-6---|-----------|-----------|-----------|
E|----------|-----------|-8-8-8-8---|-8-8-6-8---|-----------|

Spoken 

G|----------|-----------|-----------|-----------|-----------|
D|----------|-----------|-----------|-----------|-----------|
A|----------|-----------|-----------|-----------|-----------|
E|-8-8-8-8--|-8-8-8-8---|-8-8-8-8---|-8-8-8-8---|-8-8-8-8---|

Outro 

G|----------|-----------|-----------|-----------|-----------|
D|----------|-----------|-----------|-----------|-----------|
A|----------|-----------|-----------|-----------|-----------|
E|-8-8---8--|-----------|-8-8---8---|-----------|-8-8-----8-|

Suggest correction
Give kudos to tab author, rate the tab!
1 2 3 4 5
comments
print report bad tab
guest
You may want to rate the tab now too:
select rating
Wanna post a correction for this tab? Suggest correction