Oops, an error
Loading. Please wait.

Artimus Pyledriver - Swamp Devil Bass Tab

164 views 1 this week
no commentswrite comment
1 2 3 4 5
please rate
add to favorites
launch autoscroll
font size
0
reset
guitar tuner
Autoscroll
slow
fast
+/-
esc
set tempo
stop
Help us to improve Ultimate-Guitar.com Take our survey!
×
Contributor
benjo48 2,225
Swamp Devil by Artimus Pyledriver

INTRO
G------------------------------------------------------------|
D---------------3----------------3------------------3-5-3-5--|
A------------------------------------------------------------|
E-3-3-3-3-3-3-3----3-3-3-3-3-3-3----3-3-3-3-3-3-3-3----------|

VERSE           x3
G----------------|----------|
D-3--------------|-3-5-3-5--|
A----------------|----------|
E---3-3-3-3-3-3--|----------|

CHORUS 0.49          x4
G---------------------|
D---------------------|
A-5-5-5-5-5-5--3-3-3--|
E---------------------|

1.50                                                       x3
G-----------------------------------------------------------|
D-5-3-------------------------------------------------------|
A-----5-4-3-1---1-3-4-3-1-----------------------------------|
E-------------3-----------3-1--3-3-3-3-3-3--1--3-3-3-3-3-3--|

continued from above
G---------------------------------|
D-5-3-----------------------------|
A-----5-4-3-1---1-3-4-3-1---------|
E-------------3-----------3-1--3--|

2.14
G---------|
D-5~~~~~--|
A---------|
E---------|

OUTRO 4.18 played under solo
G-------------------------------------|
D-3-5-3-5-3-5-3-5-3-5-----------------|
A----------------------3-1------------|
E--------------------------1-3---1-3--|

Any corrections please comment
Thanks
comments
We did not receive enough feedback on this tab! Please rate:
print report bad tab
1 2 3 4 5
I want to post or [tab]
guest
You may want to rate the tab now too:
select rating
Please do not post tabs as comments. Select "correction" instead!