Oops, an error
Loading. Please wait.

Ass Federation - Kick Your Ass Straight To Hell Tab

484 views 1 this week
no commentswrite comment
1 2 3 4 5
please rate
add to favorites
launch autoscroll
font size
0
reset
how to read this tab
guitar tuner
Tab Pro tools
  • play this tab
  • loop segment
  • change instrument
  • show fretboard
  • metronome
×
Best way to learn
"Ass Federation - Kick Your Ass Straight To Hell"
Autoscroll
slow
fast
+/-
esc
set tempo
stop
Contributor
Difficulty
novice
Band - Ass Federation
Album/E.P - Kick Your Ass! Straight To Hell!
Tabbed By: Tyler Freear (SumFX)

Tuning: Standard (E A D G B E)

Track List:
1.Intro
2.Nazis Have A Small Penis
3.Where Is Your Freedom
4.Far Away
5.Redneck Town

Here s The Entire "Kick Your Ass! Straight To Hell!" E.P

I Rather Enjoyed This Bands Take On Crack Rock Steady 
And I Hope They Get Recognised Soon For Their Great Talent :)

Guitar 1 = Left
Guitar 2 = Right

                             Well Here We Go!
---------------------------------------------------------------------------
---------------------------------------------------------------------------
                               Intro
Funny Intro!
Just A Recording From South Park From The Britney Spears Episode (I Think)

---------------------------------------------------------------------------
---------------------------------------------------------------------------
                         Nazis Have A Small Penis

Intro
|------------------------|
|------------------------|
|-9999999999-------------|
|-9999999999-77777-99999-|
|-7777777777-77777-99999-|
|------------55555-77777-|

Verse
(Clean, Ska Rhythm)
Guitar 1 
|-7------5---7----|
|-8------5---7----|
|-9------6---8----|
|-9------7---9----|
|-7------7---9----|
|--------5---7----|

Guitar 2 
|-----------------|
|-----------------|
|-----------------|
|-------7777-9999-|
|-------7777-9999-|
|-------5555-7777-|

Chorus
Guitar 1 & 2
|-------x3---------------|-----------------------|
|------------------------|-----------------------|
|-9999999999-------------|-9999------------------|
|-9999999999-77777-99999-|-9999-7777-9999-9-7-9--|
|-7777777777-77777-99999-|-7777-7777-9999-9-7-9--|
|------------55555-77777-|------5555-7777-7-5-7--|

Bridge
Guitar 1 & 2
|----------------------------|------------------------|
|----------------------------|------------------------|
|-99999999-12-11-12-14-12-11-|-99999999-12-11-12-14---|
|-99999999-x--x--x--x--x--x--|-99999999-x--x--x--x----|
|-77777777-10-9--10-12-10-9--|-77777777-10-9--10-12---|
|----------------------------|------------------------|

Post Bridge
Guitar 1 & 2
|------------------------|-----------------|
|------------------------|-----------------|
|-9999999999-------------|-999999999-------|
|-9999999999-77777-99999-|-999999999-7--9--|
|-7777777777-77777-99999-|-777777777-7--9--|
|------------55555-77777-|-----------5--7--|

Outro
Guitar 1 & 2
|-----------------------7-|
|---------------------8---|
|-9-----------------9-----|
|-9---------------9-------|
|-7-------------7---------|
|-------------------------|

Structure
Intro
Verse
Chorus
Verse 
Chorus
Bridge
Post Bridge
Chorus
Outro

---------------------------------------------------------------------------
---------------------------------------------------------------------------
                         Where Is Your Freedom

Intro
Guitar 2
|--x4--------|------|
|------------|------|
|-4----------|--4---|
|-4--5--4----|--4---|
|-2--5--4----|--2---|
|----3--2----|------|

Guitar 1
0.20
|----------------|
|----------------|
|-----77-99------|
|-999-77-99-7----|
|-999-55-77-7----|
|-777-------5----|

Main Riff
Guitar 1 & 2
|--------------------|
|--------------------|
|-44444444-----------|
|-44444444-5555-4444-|
|-22222222-5555-4444-|
|----------3333-2222-|

Chorus
Guitar 1 & 2
|-------------------|
|-------------------|
|-444-666-777-999---|
|-444-666-777-999---|
|-222-444-555-777---|
|-------------------|

B5
|----|
|----|
|-4--|
|-4--|
|-2--|
|----|

Structure
Intro
Main Riff
Chorus
Main Riff
Chorus
Main Riff
B5

---------------------------------------------------------------------------
---------------------------------------------------------------------------
                            Far Away

Intro
Guitar 1 
|-------------------------|------------------------|
|-------------------------|------------------------|
|-88888-------55555-------|-88888---------55555----|
|-88888-55555-55555-66666-|-88888--55555--55555-6--|
|-66666-55555-33333-66666-|-66666--55555--33333-6--|
|-------33333-------44444-|--------33333--------4--|
Guitar 2 
|-------------------------|------------------------|
|-------------------------|------------------------|
|-88888-------55555-------|-8888-8b-------5555b----|
|-88888-55555-55555-66666-|-8888-8b-5555b-5555b-6--|
|-66666-55555-33333-66666-|-6666-6b-5555b-3333b-6--|
|-------33333-------44444-|---------3333b-------4--|

Verse/Chorus
Guitars 1 & 2
|------------------------|
|------------------------|
|-88888-------5555-------|
|-88888-55555-5555-6666--|
|-66666-55555-3333-6666--|
|-------33333------4444--|

Bridge
Guitar 1 & 2
|--------------------|
|--------------------|
|-8888------555------|
|-8888-5555-555-666--|
|-6666-5555-333-666--|
|------3333-----444--|

Ska Section
(Clean, Ska Rhythm)
Guitar 1 
|-----3---3---4---|
|-8---3---4---4---|
|-8---4---5---5---|
|-8---5---5---6---|
|-6---5---3---6---|
|-----3-------4---|

Guitar 2 
(Listen For Timing)
|---|--------|-------|---|----------------|-----------------|
|---|--------|-------|---|----------------|-----------------|
|-8-|--8-----|-8-----|-8-|-8-8-8-8-8-8-8-8|-8-8-8-8-8-8-8-8-|
|-8-|----8---|---8---|---|----------------|-----------------|
|-6-|------6-|-----6-|---|----------------|-----------------|
|---|--------|-------|---|----------------|-----------------|

D#5
Guitar 1 & 2
|-------------------|
|-------------------|
|-8-----------------|
|-8-----------------|
|-6-----------------|
|-------------------|

Stucture
Intro
Verse
Chorus
Verse
Chorus
Bridge
Ska Section
Chorus
D#5

---------------------------------------------------------------------------
---------------------------------------------------------------------------
                             Redneck Town

Verse
(Clean, Ska Rhythm)
Guitar 1 & 2
|-------------------|
|-9-9-9-9--7-7-7-7--|
|-9-9-9-9--7-7-7-7--| X8
|-9-9-9-9--7-7-7-7--|
|-7-7-7-7--5-5-5-5--|
|-------------------|

|-------------------|
|-9-----------------|
|-9-----------------|
|-9-----------------|
|-7-----------------|
|-------------------|

Chorus
Guitar 1 & 2
|---------------------|
|---------------------|
|-9999-7777-----------|
|-9999-7777-5555-4444-|
|-7777-5555-5555-4444-|
|-----------3333-2222-|

Bridge
Guitar 1 & 2
|-------------------------------------|
|-------------------------------------|
|-99999999-77777777-------------------|
|-99999999-77777777-55555555-44444444-|
|-77777777-55555555-55555555-44444444-|
|-------------------33333333-22222222-|

E5
Guitar 1 & 2
|-------------------|
|-------------------|
|-9-----------------|
|-9-----------------|
|-7-----------------|
|-------------------|

Structure
Verse
Chorus
Bridge
Chorus
E5

---------------------------------------------------------------------------
---------------------------------------------------------------------------

There You Have It, Great Band And A great E.P!

Like I Said, I Hope They Get Recognised For This Music

Rate & Comment!
comments
We did not receive enough feedback on this tab! Please rate:
print report bad tab
1 2 3 4 5
I want to post or [tab]
guest
You may want to rate the tab now too:
select rating
Please do not post tabs as comments. Select "correction" instead!