Oops, an error
Loading. Please wait.

Athica - Humanoids At War Bass Tab

116 views 3 this week
no commentswrite comment
1 2 3 4 5
please rate
add to favorites
launch autoscroll
font size
0
reset
guitar tuner
Tab Pro tools
  • play this tab
  • loop segment
  • change instrument
  • show fretboard
  • metronome
Autoscroll
slow
fast
+/-
esc
set tempo
stop
Contributor
Tuning
C F A# D# G C
HUMANOIDS AT WAR!!!!

 Ab||-------------------------------------------------||
 E-||-------------------------------------------------||
 B-||--------------------------------7----------------||
 F#||--8P5---5----1--1--1--4- -4--4----8-7-10-8-7-----||
 B-||------8--7-8--h2-h2-h2-h5-h5-h5------------------||


 Ab||-------------------------------------------------||
 E-||-------------------------------------------------||
 B-||--------------------------------7----------------||
 F#||--8P5---5----1--1--1--4- -4--4----8-7-8-7-5------||
 B-||------8--7-8--h2-h2-h2-h5-h5-h5------------------||o



Ab||-------------------------------------------------||
E-||-------------------------------------------------||
B-||-------------------------------------------------||
F#||-1-----------------------1-----------------------||
B-||-0-----------------------2-----------------------||


Ab||-------------------------------------------------||
E-||-------------------------------------------------||
B-||-------------------------------------------------||
F#||-------------------------------------------------||
B-||-3-2-1----3-6-2-----3-1-2-3-2-1----3-6-2---3-1-2-||



Ab||-----------------------------------||
E-||-----------------------------------||
B-||-----------------------------------||
F#||-----------------------------------||
B-||-3-2-0--1--4-5-4--0-3-2-5-3-000000-||



Ab||----------------------------------------------------||
E-||----------------------------------------------------||
B-||----------------------------------------------------||
F#||-4--4--4--4--4--4--4--4---7--7--7---5--5--5--5--5---||
B-||--h5-h5-h5-h5-h5-h5-h5-h5--h8-h8-h8--h7-h7-7h-h7-h7-||


Ab||--------------------------------------------------------||
E-||--------------------------------------------------------||
B-||--------------------------------------------------------||
F#||---------88888888----5555444444----777755554444---------||
B-||-88888888--------8888----------5555------------55557777-||


repeat riffs
comments
We did not receive enough feedback on this tab! Please rate:
print report bad tab
1 2 3 4 5
I want to post or [tab]
guest
You may want to rate the tab now too:
select rating
Please do not post tabs as comments. Select "correction" instead!