Oops, an error
Loading. Please wait.

Audacious - Mighty Bass Tab

429 views 1 this week
no commentswrite comment
1 2 3 4 5
please rate
add to favorites
launch autoscroll
font size
0
reset
guitar tuner
Autoscroll
slow
fast
+/-
esc
set tempo
stop
Help us to improve Ultimate-Guitar.com Take our survey!
×
Author
Difficulty
novice
Intro 00:12 till 00:56

G --------------------------------------------|
D --------------------------------------------|
A 5-5-5--1-1-1--5-5-5--1-1-1--5-5-5-----------|
E --------------------------------------------|

00:57 till 01:17

G --------------------------------------------|
D --------------------------------------------|
A 5-55--1-11--5-55-1-11--5-55-----------------|
E --------------------------------------------|

01:18 till 01:42

G --------------------------------------------|
D --------------------------------------------|
A 55--11--55--11--55--------------------------|
E --------------------------------------------|

01:43 till 02:05

G --------------------------------------------|
D --------------------------------------------|
A 555555555555--111111111111111---------------|
E --------------------------------------------|

02:06 till 02:29

G --------------------------------------------|
D --------------------------------------------|
A 5-55--1-11--5-55-1-11-----------------------|
E --------------------------------------------|

02:30 till 02:51

G --------------------------------------------|
D --------------------------------------------|
A 555555555555--111111111111111---------------|
E --------------------------------------------|

03:02                                  03:14

G ----------------------------------------------|
D ----------------------------------------------|
A 555-----------------------------------555-----|
E ----------------------------------------------|
Suggest correction
Give kudos to tab author, rate the tab!
1 2 3 4 5
comments
print report bad tab
guest
You may want to rate the tab now too:
select rating
Please do not post tabs as comments. Select "correction" instead!