Oops, an error
Loading. Please wait.

August Underground - The Summit Bass Tab

65 views 1 this week
no commentswrite comment
1 2 3 4 5
3 more votes to show rating
add to favorites
launch autoscroll
font size
0
reset
guitar tuner
Autoscroll
slow
fast
+/-
esc
set tempo
stop
Help us to improve Ultimate-Guitar.com Take our survey!
×
-------------------------------------------------------------------------------
			     The Summit - August Underground
-------------------------------------------------------------------------------

Tabbed By : Voodoochilli499
e-mail: Andmoore1230@yahoo.com

Tuning:

G|--------------------------------------------------------------|
D|2-----2-----0-------------------0-2-----2-----0-------------01|
A|--------------------4-2-0-----------------------024-----024---|    x4
E|----0-----0---------------4-2-0-------0-----0-------024-------|

G|------------------------|
D|-----2---2---242-------2|
A|-----------------4-2-4--|   x8
E|0--0---0----------------|

G|--------------------------------------------------------------|
D|2-----2-----0-------------------0-2-----2-----0-------------01|
A|--------------------4-2-0-----------------------024-----024---|   x4
E|----0-----0---------------4-2-0-------0-----0-------024-------|

G|------------------------|
D|-----2---2---242-------2|
A|-----------------4-2-4--|   x8
E|0--0---0----------------|

G|-------------------------------------------------|
D|-----2---2---4---2-0-----------------------------|
A|---------------------4-2-0-5--5--5-555-55-5555555|   x4
E|0--0---0-----------------------------------------|

G|--------------------|
D|-----2---2----------|
A|------------2-2-0-0-|   x8
E|0--0---0------------|

G|------------------------|
D|-----2---2--5---5--7---7|
A|------------------------|   all through the solo
E|0--0---0---3-3-3--5-5-5-|

G|--------------------------------------------------------------|
D|2-----2-----0-------------------0-2-----2-----0-------------01|
A|--------------------4-2-0-----------------------024-----024---|  till end
E|----0-----0---------------4-2-0-------0-----0-------024-------|



| /  slide up
| \  slide down
| h  hammer-on
| p  pull-off
| ~  vibrato
| +  harmonic
| x  Mute note
===============================================================================
Suggest correction
Give kudos to tab author, rate the tab!
1 2 3 4 5
comments
print report bad tab
guest
You may want to rate the tab now too:
select rating
Wanna post a correction for this tab? Suggest correction