Oops, an error
Loading. Please wait.

Aurora - Sadauzitais Bundzinieks Tab

162 views 1 this week
no commentswrite comment
1 2 3 4 5
please rate
add to favorites
launch autoscroll
font size
0
reset
how to read this tab
guitar tuner
Autoscroll
slow
fast
+/-
esc
set tempo
stop
Help us to improve Ultimate-Guitar.com Take our survey!
×
Author
One of the best Latvian songs! :)

Intro
E|-------3--------3-------3----------|
B|-----5--------5-------5------------|
G|-1/2------1/2-----1/2-----5----5-3-|   2X
D|-----------------------------------|
A|-----------------------------------|
E|-----------------------------------|

Main Riff
....  Parliecies par kausu raud......
E|---3----------------------|
B|-5---5--3-----------3---3-|
G|----------5---5-4-5---5---|
D|--------------------------|
A|--------------------------|
E|--------------------------|

..asaras, kas vinjam lasts...___________________2X__________________
E|---3----------------------|----------------------|---------------|
B|-5---5--3-----------3---3-|----------------------|---------------|
G|----------5---5-4-5---5---|-7---5----------------|-7---5-/-14-14-|
D|--------------------------|-7---5---7--7-----5/7-|-7---5-/-14-14-|
A|--------------------------|---------7--7-----5/7-|---------------|
E|--------------------------|----------------------|---------------|

Piedziedajums:

....visa pasaule ir miljons sāpes...
E|-------------------------|
B|--5-5-/-8-8--5-5--5h6p5--|
G|-------------------------|
D|-------------------------|
A|-------------------------|
E|-------------------------|

..kad raudi Tu - smejos es....
E|-------------------5-5---|
B|--5-5-/-8-8--5-5---5-5---|
G|-------------------------|
D|-------------------------|
A|-------------------------|
E|-------------------------|

....cerībai vilnis krastā....otrreiz neatnak...
E|-------------------------|-------------------|
B|--5-5-/-8-8--5-5--5h6p5--|--5-5-/-8-8--3-3-3-|
G|-------------------------|-------------------|
D|-------------------------|-------------------|
A|-------------------------|-------------------|
E|-------------------------|-------------------|

Pareja:

E|-------------|
B|-------------|
G|-------------|
D|-7__________-|
A|-7__________-|
E|-------------|

...nav neviens, kas celties palidzes...
E|-----------------------|
B|-5-------3--------5__--|
G|-----5-------4----5__--|
D|-----------------------|
A|-----------------------|
E|-----------------------|

...wey....ou....why....
E|----------------------|
B|---5----5-----5----5--|
G|-5----4---------------|
D|-----------7----7-----|
A|----------------------|
E|----------------------|

E|----------------------|
B|---5----5----3---3-3--|
G|-5----4------4---4-4--|
D|----------------------|
A|----------------------|
E|----------------------|

Parliecies par kausu raud
Sadauzitais bundzinieks.
Asaras krit leni, leni,
Asaras, kas vinjam lasts.

Visa pasaule ir miljons sapes:
Kad raudi Tu - smejos es.
Ceribai vilnis krasta
Otrreiz neatnak.

Cauri puspavertai mutei
Vardi meles gala zhust.
Trepes, kas pret sauli liecas
Pirma pakapiena luzt.

Visa pasaule ir miljons sapes:
Kad raudu es - smejies Tu.
Ceribai vilnis krasta
Otrreiz neatnak.

Nav neviens, kas celties palidzes.
Nav neviens, kas notices.
Taikai Tavs, Tavs pieskariens
Sho dziesmu pabeigt spes.

Visa pasaule ir miljons sapes:
Kad raudu es - smejies Tu.
Ceribai vilnis krasta
Otrreiz neatnak.
Suggest correction
Give kudos to tab author, rate the tab!
1 2 3 4 5
comments
print report bad tab
guest
You may want to rate the tab now too:
select rating
Please do not post tabs as comments. Select "correction" instead!