Oops, an error
Loading. Please wait.

Australian Ant Farm - Meerkats Shame Tab

74 views 1 this week
no commentswrite comment
1 2 3 4 5
3 more votes to show rating
add to favorites
launch autoscroll
font size
0
reset
how to read this tab
guitar tuner
Autoscroll
slow
fast
+/-
esc
set tempo
stop
Help us to improve Ultimate-Guitar.com Take our survey!
×
Author
Difficulty
Tuning
novice
C G C F A D
  Q=160
 4/4

Drop c
  Gtr I
|-----------------|----------------|-----------------|---------------|
|-----------------|----------------|-----------------|---------------|
|-----------------|----------------|-----------------|---------------|
|-----------------|----------------|-5-5-5-5-5-5-5-5-|-3-3-3-3-5-5-5-|
|-0-0-0-0-0-0-0-0-|-0-0-0-0-0-0-0--|-3-3-3-3-3-3-3-3-|-1-1-1-1-3-3-3-|
|-0-0-0-0-0-0-0-0-|-0-0-0-0-0-0-0--|-----------------|---------------|
|
| Gtr II
|-2---------------|-2--------------|-0---------------|-1-0-----------|
|-3---------------|-3--------------|-1---------------|-3-1-----------|
|-2---------------|-2--------------|-0---------------|-3-0-----------|
|-0---------------|-0--------------|-2---------------|-3-2-----------|
|-----------------|----------------|-3---------------|-1-3-----------|
|-----------------|----------------|-----------------|---------------|


|-||------------------|-----------------|-----------------|------------------||
|-||o-----------------|-----------------|-----------------|-----------------o||
|-||------------------|-----------------|-----------------|------------------||
|-||------------------|-----------------|-5-5-5-5-5-5-5-5-|-3-3-3-3-5-5-5-5--||
|-||o-0-0-0-0-0-0-0-0-|-0-0-0-0-0-0-0-0-|-3-3-3-3-3-3-3-3-|-1-1-1-1-3-3-3-3-o||
|-||--0-0-0-0-0-0-0-0-|-0-0-0-0-0-0-0-0-|-----------------|------------------||
|
|-||--2---------------|-2---------------|-0---------------|-1-0--------------||
|-||o-3---------------|-3---------------|-1---------------|-3-1-------------o||
|-||--2---------------|-2---------------|-0---------------|-3-0--------------||
|-||--0---------------|-0---------------|-2---------------|-3-2--------------||
|-||o-----------------|-----------------|-3---------------|-1-3-------------o||
|-||------------------|-----------------|-----------------|------------------||


||--------------------------|-----------------|-----------------|-------------|
||o-------------------------|-----------------|-----------------|-------------|
||--------------------------|-----------------|-----------------|-------------|
||--------------------------|-----------------|-----------------|-3-3-3-3-5-5-|
||o-12-12-12-12-12-12-12-12-|-3-3-3-3-3-3-3-3-|-5-5-5-5-5-5-5-5-|-1-1-1-1-3-3-|
||--12-12-12-12-12-12-12-12-|-3-3-3-3-3-3-3-3-|-5-5-5-5-5-5-5-5-|-------------|
|
||---2----------------------|-1---------------|-3---------------|-1-0---------|
||o--3----------------------|-1---------------|-3---------------|-3-1---------|
||---2----------------------|-2---------------|-4---------------|-3-0---------|
||---0----------------------|-3---------------|-5---------------|-3-2---------|
||o-------------------------|-3---------------|-5---------------|-1-3---------|
||--------------------------|-3---------------|-5---------------|-------------|


|--||-------------------|-------------------|------------|-----------|
|-o||-------------------|-------------------|------------|-----------|
|--||-------------------|-------------------|------------|-----------|
|--||-------------------|-------------------|------------|-----------|
|-o||-0--0-----0--0-----|-0--0-----0--0-----|-0--0-----0-|--0-----0--|
|--||-0--0-----0--0-----|-0--0-----0--0-----|-0--0-----0-|--0-----0--|


|-------------|---------|---------|----------|-----------|---------|---------|----|
|-------------|---------|---------|----------|-----------|---------|---------|----|
|-------------|---------|---------|----------|-----------|---------|---------|----|
|-------------|---------|---------|----------|-----------|---------|---------|----|
|-0-----0--0--|---------|---------|----------|-----------|---------|---------|----|
|-0-----0--0--|---------|---------|----------|-----------|---------|---------|----|


Suggest correction
Give kudos to tab author, rate the tab!
1 2 3 4 5
comments
print report bad tab
guest
You may want to rate the tab now too:
select rating
Wanna post a correction for this tab? Suggest correction