Oops, an error
Loading. Please wait.

Austrian Death Machine - Get To The Choppa Tab

version 1
version 1

Whole song

Interactive

38,874 views 4 this week
8 commentsread comments
1 2 3 4 5
accurate
x 12
add to favorites
launch autoscroll
font size
0
reset
how to read this tab
guitar tuner
Tab Pro tools
  • play this tab
  • loop segment
  • change instrument
  • show fretboard
  • metronome
×
Best way to learn
"Austrian Death Machine - Get To The Choppa"
Autoscroll
slow
fast
+/-
esc
set tempo
stop
Contributor
Difficulty
Tuning
intermediate
D# G# C# F# A# D#
-------------------------------------------------------------------------------
                   Get To The Choppa - Austrian Death Machine
-------------------------------------------------------------------------------
www.myspace.com/austriandeathmachine
Tabbed by:  Jason Alford
Email: alfordjk@hotmail.com / myspace.com/strumz81

Tuning: Down a Half Step

Intro:
e|-------------------------------------------------------------|
B|-------------------------------------------------------------|
G|-------------------------------------------------------------|
D|--------------------------------------------------------0h2--|
A|------2-----------2-----------------2---------2--------------|
E|--000---1-0-0-000---1-0-000-000-000---1-0-000---1-0-000------|

e|-------------------------------------------------------------|
B|-------------------------------------------------------------|
G|-------------------------------------------------------------|
D|----------------------------------------------0h2--2/3--3/5--|
A|------2-----------2-----------------2------------------------|
E|--000---1-0-0-000---1-0-000-000-000---1-0-000-----0----0-----|

Verse: 1
e|-------------------------------||---------------------------------|
B|-------------------------------||---------------------------------|
G|-------------------------------||---------------------------------|
D|--------------9-7--9-109--7-9--||--------------9-7--9-12-10--7-9--|
A|--------------7-5--7-8-7--5-7--||--------------7-5--7-10-8---5-7--|
E|--000000000000-----------------||--000000000000-------------------|

e|-------------------------------||-------------------------------|
B|-------------------------------||-------------------------------|
G|-------------------------------||-------------------------------|
D|--------------9--7-9-109--7-9--||--------------9--12-12-10-7-9--|
A|--------------7--5-7-8-7--5-7--||--------------7--10-10-8--5-7--|
E|--000000000000-----------------||--000000000000-----------------|


Pre-Chorus
e|-----------------------------------------------------------------|
B|-----------------------------------------------------------------|
G|-----------------------------------------------------------------|
D|--9-----------------------------2---------------7/9--9/10--1012--|
A|--7-let-ring--------------------2--2-2-2-2-2-2--5/7--7/8---8/10--|
E|--------------------------------0--0-0-0-0-0-0-------------------|

Chorus:
e|----------------------------------------------------------------------|
B|----------------------------------------------------------------------|
G|----------------------------------------------------------------------|
D|------10-----------10--------------------10-----------7/9--9/10-1012--|
B|---------8-7----------8-7-------5h7---------8-7-------5/7--7/8--8/10--|
E|--000--------0-000--------0-000------000--------0-000-----------------|

e|----------------------------------------------------------------------|
B|----------------------------------------------------------------------|
G|----------------------------------------------------------------------|
D|------10-----------10--------------------10-----------7/9--9/10-1012--|
B|---------8-7----------8-7-------5h7---------8-7-------5/7--7/8--8/10--|
E|--000--------0-000--------0-000------000--------0-000-----------------|

e|----------------------------------------------------------------------|
B|----------------------------------------------------------------------|
G|----------------------------------------------------------------------|
D|-----10-----------10-------------------10-----------10-----------7/9--|
A|--------8------------8-7------------------8-7----------8-7-------5/7--|
E|--000-----7-0-000--------0-000-000-000--------0-000--------0-000------|

e|--------------------------------------------------------------------|
B|--------------------------------------------------------------------|
G|--------------------------------------------------------------------|
D|-----10-----------10-------------------10-----------7/9--9/10-1012--|
A|--------8------------8-7------------------8-7-------5/7--7/8--8/10--|
E|--000-----7-0-000--------0-000-000-000--------0-000-----------------|

                AAAAHHHHHHHH!!!
e|----------------------------|
B|----------------------------|
G|----------------------------|
D|----------------------------|
A|----------------------------|
E|--000000000000000000000000--|

Verse: 2
e|-------------------------------||---------------------------------|
B|-------------------------------||---------------------------------|
G|-------------------------------||---------------------------------|
D|--------------9-7--9-109--7-9--||--------------9-7--9-12-10--7-9--|
A|--------------7-5--7-8-7--5-7--||--------------7-5--7-10-8---5-7--|
E|--000000000000-----------------||--000000000000-------------------|

e|-------------------------------||-------------------------------|
B|-------------------------------||-------------------------------|
G|-------------------------------||-------------------------------|
D|--------------9--7-9-109--7-9--||--------------9--12-12-10-7-9--|
A|--------------7--5-7-8-7--5-7--||--------------7--10-10-8--5-7--|
E|--000000000000-----------------||--000000000000-----------------|

During Solo: 
e|-------------------------------------------------------------|
B|-------------------------------------------------------------|
G|-------------------------------------------------------------|
D|--------------------------------------------------------0h2--|
A|------2-----------2-----------------2---------2--------------|
E|--000---1-0-0-000---1-0-000-000-000---1-0-000---1-0-000------|

e|-------------------------------------------------------------|
B|-------------------------------------------------------------|
G|-------------------------------------------------------------|
D|----------------------------------------------0h2--2/3--3/5--|
A|------2-----------2-----------------2------------------------|
E|--000---1-0-0-000---1-0-000-000-000---1-0-000-----0----0-----|

e|-------------------------------------------------------------|
B|-------------------------------------------------------------|
G|-------------------------------------------------------------|
D|--------------------------------------------------------0h2--|
A|------2-----------2-----------------2---------2--------------|
E|--000---1-0-0-000---1-0-000-000-000---1-0-000---1-0-000------|

e|--------------------------------------------------------------|
B|--------------------------------------------------------------|
G|--------------------------------------------------------------|
D|----------------------------------------------7/9--9/10-1012--|
A|------2-----------2-----------------2---------5/7--7/8--8/10--|
E|--000---1-0-0-000---1-0-000-000-000---1-0-000-----------------|


Chorus:
e|----------------------------------------------------------------------|
B|----------------------------------------------------------------------|
G|----------------------------------------------------------------------|
D|------10-----------10--------------------10-----------7/9--9/10-1012--|
B|---------8-7----------8-7-------5h7---------8-7-------5/7--7/8--8/10--|
E|--000--------0-000--------0-000------000--------0-000-----------------|

e|----------------------------------------------------------------------|
B|----------------------------------------------------------------------|
G|----------------------------------------------------------------------|
D|------10-----------10--------------------10-----------7/9--9/10-1012--|
B|---------8-7----------8-7-------5h7---------8-7-------5/7--7/8--8/10--|
E|--000--------0-000--------0-000------000--------0-000-----------------|

e|----------------------------------------------------------------------|
B|----------------------------------------------------------------------|
G|----------------------------------------------------------------------|
D|-----10-----------10-------------------10-----------10-----------7/9--|
A|--------8------------8-7------------------8-7----------8-7-------5/7--|
E|--000-----7-0-000--------0-000-000-000--------0-000--------0-000------|

e|--------------------------------------------------------------------|
B|--------------------------------------------------------------------|
G|--------------------------------------------------------------------|
D|-----10-----------10-------------------10-----------7/9--9/10-10----|
A|--------8------------8-7------------------8-7-------5/7--7/8--8/10~~|
E|--000-----7-0-000--------0-000-000-000--------0-000-----------------|

Outro: PM all / Notes in parentheses left speaker only
e|-------------------------------------------------------|
B|-------------------------------------------------------|
G|-------------------------------------------------------|
D|-------------------------------------------------------|
A|-------------------------------------------------------|
E|--000-0-0-000-0-000-----------------000-0-0-000-0-000--|

e|----------------------------------------------------------------------|
B|----------------------------------------------------------------------|
G|----------------------------------------------------------------------|
D|----------------------------------------------------------------------|
A|----------------------------------------------------------------------|
E|--000-0-0-000-0-000(0-000-000-000)--000-0-0-000-0-000(0-000-000-000)--|

e|----------------------------------------------------------------------|
B|----------------------------------------------------------------------|
G|----------------------------------------------------------------------|
D|----------------------------------------------------------------------|
A|--222-2-2-222-2-222-----------------222-2-2-222-2-222-----------------|
E|--000-0-0-000-0-000(0-000-000-000)--000-0-0-000-0-000(0-000-000-000)--|

e|----------------------------------------------------------------------|
B|----------------------------------------------------------------------|
G|----------------------------------------------------------------------|
D|----------------------------------------------------------------------|
A|--222-2-2-222-2-222-2-222-222-222---222-2-2-222-2-222-2-222-2-2-2-2---|
E|--000-0-0-000-0-000-0-000-000-000---000-0-0-000-0-000-0-000-0-0-0-0---|

comments
print report bad tab
8 comments total. Showing first comments.
+2 reply
SHfan201 wrote on December 10 2008, 08:52 am

Tab seems to be good...one thing though...Austrian Death Machine is not an unsigned band...they're signed to Metal Blade Records.
Anyways, 5*

0 reply
strumz81 wrote on December 13 2008, 12:47 pm

yea i know, but when i submitted that this is how they posted it...idk

0 reply
basspunk709 wrote on December 16 2008, 08:58 am

thats weird... good job

I want to post or [tab]
guest
You may want to rate the tab now too:
select rating
Please do not post tabs as comments. Select "correction" instead!