Oops, an error
Loading. Please wait.

Automanual - Elevator Bass Tab

56 views 1 this week
no commentswrite comment
1 2 3 4 5
3 more votes to show rating
add to favorites
launch autoscroll
font size
0
reset
guitar tuner
Autoscroll
slow
fast
+/-
esc
set tempo
stop
Help us to improve Ultimate-Guitar.com Take our survey!
×
-------------------------------------------------------------------------------
			    Elevator
-------------------------------------------------------------------------------


Intro
G|---------------------------------------------------------------------------|
D|---------------------------------------------------------------------------|
A|---4-(16x)-----------------------------------------------------------------|
E|-------------5-(8x)------7-(8x)--------------------------------------------|


Verse
G|---------------------------------------------------------------------------|
D|----------------------6----------------------------------------------------|
A|---4---4-4---2/4-4--4---4--------------------9-----------------------------|
E|----------------------------5-5--5---5/7-7-7----7--------------------------|


Pre Chorus (1st Half)
G|---------------------------------------------------------------------------|
D|---------------------------------------------------------------------------|
A|---------------------------------------------------------------------------|
E|--2-(16x)----------5-(16x)-------------------------------------------------|



Pre Chorus (2nd Half)
G|---------------------------------------------------------------------------|
D|---------------------------------------------------------------------------|
A|---------------------4-----------------------------------------------------|
E|--2----2--2--0/2-2-2---2---5-(9x)------------------------------------------|




Chorus
G|---------------------------------------------------------------------------|
D|---------------------------------------------------------------------------|
A|----4-(8x)-------------------------2-(4x)--3-(4x)--------------------------|
E|--------------0-(8x)----5-(8x)---------------------------------------------|


Bridge
G|---------------------------------------------------------------------------|
D|---------------------------------------------------------------------------|
A|---------------------------------------------------------------------------|
E|--2-(16x)----------5-(16x)-------------------------------------------------|


Build (builds up starting very soft)
G|---------------------------------------------------------------------------|
D|---------------------------------------------------------------------------|
A|----4-(8x)-------------------------2-(4x)--3-(4x)--------------------------|
E|--------------0-(8x)----5-(8x)---------------------------------------------|





| Intro 2x
| Verse 2x (No Bass)
| Prechorus 1st half 1x
| Prechorus 2nd half 1x
| Chorus 2x
| Intro 1x
| Verse 2x
| Prechorus 1st half 1x
| Prechorus 2nd half 1x
| Chorus 2x
| Bridge 2x
| Build 1x (second half)
| Chorus 2x
| Intro 2x
===============================================================================
Suggest correction
Give kudos to tab author, rate the tab!
1 2 3 4 5
comments
print report bad tab
guest
You may want to rate the tab now too:
select rating
Wanna post a correction for this tab? Suggest correction