Oops, an error
Loading. Please wait.

Automatic - 33 West Tab

55 views 1 this week
no commentswrite comment
1 2 3 4 5
please rate
add to favorites
launch autoscroll
font size
0
reset
how to read this tab
guitar tuner
Tab Pro tools
  • play this tab
  • loop segment
  • change instrument
  • show fretboard
  • metronome
×
Best way to learn
"Automatic - 33 West"
Autoscroll
slow
fast
+/-
esc
set tempo
stop
Contributor
Difficulty
novice
                             AUTOMATIC - 33 West
----------------------------------------------------------------------------
Tabbed by:LeoandLoeb
Email:Timemaster701@cox.net

Tuning:D A D G B E

Intro:
e|-------------------------------------------------------------------------|
B|-------------------------------------------------------------------------|
G|-8-8-8--13-12---------7-8-------8-7--------------------------------------|
D|-8-8-8--*--*---8-8-8--*-*-6-6-6-*-*-3333333344444444---x2----------------|
A|-6-6-6--11-10--8-8-8--5-6-6-6-6-6-5-3333333344444444---------------------|
E|---------------8-8-8------6-6-6-----3333333344444444---------------------|

Verse:
e|-------------------------------------------------------------------------|
B|-------------------------------------------------------------------------|
G|-8-7-5-------8-7-5-------------------------------------------------------|
D|-*-*-*-------*-*-*-34----------------------------------------------------|
A|-6-5-3--8-9--6-5-3-34----------------------------------------------------|
E|-------------------34----------------------------------------------------|

Pre-chorus:
e|-------------------------------------------------------------------------|
B|-------------------------------------------------------------------------|
G|-------------------------------------------------------------------------|
D|-1-1-0-6-88--1--1-0-6-8--------------------------------------------------|
A|-1-1-0-6-88--1--1-0-6-8--------------------------------------------------|
E|-1-1p0-6-88--1--1p0-6-8--------------------------------------------------|

Chorus:
e|-------------------------------------------------------------------------|
B|-------66666666-99999999-8888-10-10-10-10--------------------------------|
G|-88----55555555-********-****-*--*--*--*-----------x2--------------------|
D|-88-88-33333333-66666666-5555-8--8--8--8---------------------------------|
A|-66-88-------------------------------------------------------------------|
E|----88-------------------------------------------------------------------|

The seond verse,pre-chorus, and chorus are the same except, in the verse, instead of the 
fingered 8-9 after the octaves play the 8-9 in triplets and octaves.

Bridge (before the porno clip):
e|-------------------------------------------------------------------------|
B|-------------------------------------------------------------------------|
G|-8888888855555555-----------------8-8-8-5-5-5----------------------------|
D|-88888888555555553333333366665555-8-8-8-5-5-5333333--666666-5------------|
A|-66666666333333333333333366665555-6-6-6-3-3-3333333--666666-5------------|
E|-----------------3333333366665555------------333333--666666-5------------|
                                                       pm.....
The rest is just the chorus being played with full strumming.
I learned this from their guitarist so the shoudl be no mistakes.


| /  slide up
| \  slide down
| h  hammer-on
| p  pull-off
| ~  vibrato
| +  harmonic
| *  Mute note
============================================================================
comments
We did not receive enough feedback on this tab! Please rate:
print report bad tab
1 2 3 4 5
I want to post or [tab]
guest
You may want to rate the tab now too:
select rating
Please do not post tabs as comments. Select "correction" instead!