Oops, an error
Loading. Please wait.

Autoplay Conspiracy - Almost Always Tab

81 views 1 this week
no commentswrite comment
1 2 3 4 5
please rate
add to favorites
launch autoscroll
font size
0
reset
how to read this tab
guitar tuner
Tab Pro tools
  • play this tab
  • loop segment
  • change instrument
  • show fretboard
  • metronome
×
Best way to learn
"Autoplay Conspiracy - Almost Always"
Autoscroll
slow
fast
+/-
esc
set tempo
stop
Contributor
Difficulty
novice
Almost... Always
    

1st guitar!                              
e|--------------------------------------------------------------------|
B|--------------------------------------------------------------------|
G|--------------------------------------------------------------------| 2x's
D|--------------------------------------------------------------------|
A|-0-0-------------0-0-------------0-0-------------0-0----------------|
D|-0-0-8p0-7p0-5p0-0-0-8p0-7p0-5p0-0-0-8p0-7p0-5p0-0-0-8p0-7p0-10p0---|
   . .             . .             . .             . .            
2nd Guitar!
e|------------------------------------------------------|
B|------------------------------------------------------|
G|------------------------------------------------------|2x's 
D|-8---------5---------7---------0----------------------|
A|-8-(8x's)--5-(8x's)--7-(8x's)--0-(8x's)---------------|
D|-8---------5---------7---------0----------------------|

1st Guitar!  Played fast
e|--------------------------------|
B|--------------------------------|
G|-99-999-999-999-999-999-999-999-| 
D|-xx-xxx-xxx-xxx-xxx-xxx-xxx-xxx-|
A|-77-777-777-777-777-777-777-777-|
D|--------------------------------|                              

2nd Guitar!   Also Played Fast!
e|--------------------------------|
B|--------------------------------|
G|--------------------------------| 
D|-00-000-000-000-000-000-000-000-|
A|-00-000-000-000-000-000-000-000-|
D|-00-000-000-000-000-000-000-000-|
   .. ... ... ... ... ... ... ...
1st Guitar Riff!
e|-----------------------------------------------------------------------------|
B|-----------------------------------------------------------------------------|
G|-----------------------------------------------------------------------------| 
D|-----------------------------------------------------------------------------|
A|-0-0-------------------------------------------------------------------------|
D|-0-0-8p0-7p0-5p0-8p0-7p0-8p0-10p0-8p0-7p0-8p0-7p0-8p0-10p0-12p0-10p0-8p0-7p0-|
   . .                                                   

e|-----------------------------------------------------------------------------|
B|-----------------------------------------------------------------------------|
G|-----------------------------------------------------------------------------| 
D|-----------------------------------------------------------------------------|
A|-0-0-------------------------------------------------------------------------|
D|-0-0-8p0-7p0-5p0-8p0-7p0-5p0-7p0-8p0-10p0-8p0-7p0-8p0-10p0-12p0-5p0-7p0-8p0--|
   . . 
This PART IS VERY FAST!!! So im gonna write it all 
together                                                  
e|-----------------------------------------------------------------------------|
B|-----------------------------------------------------------------------------|
G|-----------------------------------------------------------------------------| 
D|-----------------------------------------------------------------------------|
A|-0-0-------------------------------------------------------------------------|
D|-0-0-12p8-12p7-12p5-12p8-12p7-12p8-12p10-12p8-12p7-12p8-12p7-12p5-12p7-12p8b-|
   . .                                                   

2nd Guitar!
e|---------------------------------------------------------------------------|
B|---------------------------------------------------------------------------|
G|---------------------------------------------------------------------------| 
D|-00-000-000-000-088-888-888-888-877-777-777-777-71010-101010-101010-101010-|
A|-00-000-000-000-088-888-888-888-877-777-777-777-71010-101010-101010-101010-|
D|-00-000-000-000-088-888-888-888-877-777-777-777-71010-101010-101010-101010-|
   .. ... ... ... ... ... ... ... ... ... ... ... ..... ...... ...... ......

e|---------------------------------------------------------------------------|
B|---------------------------------------------------------------------------|
G|---------------------------------------------------------------------------| 
D|-00-000-000-000-088-888-888-888-877-777-777-777-71010-101010-101212-121212-|
A|-00-000-000-000-088-888-888-888-877-777-777-777-71010-101010-101212-121212-|
D|-00-000-000-000-088-888-888-888-877-777-777-777-71010-101010-101212-121212-|
   .. ... ... ... ... ... ... ... ... ... ... ... ..... ...... ...... ......
1st Guitar
e|----------------------------------------|
B|----------------------------------------|
G|----------------------------------------| 2x's
D|----------------------------------------|
A|-0-0-8-7-5-0-0-8-7-5-0-0-8-7-8-10-8-7-5-|
D|-0-0-------0-0-------0-0----------------|
   . .       . .       . . 

e|------------------------------------------|
B|------------------------------------------|
G|------------------------------------------| 2x's
D|------------------------------------------|
A|-0-0-8-7----0-0-8-7----0-0-8-7-8-10-8-7-5-|
D|-0-0-----10-0-0-----10-0-0----------------|
   . .        . .        . .
2nd 
e|-------------------------------------------|
B|-------------------------------------------|
G|-------------------------------------------| 4x's
D|-------------------------------------------|
A|-0-0--------0-0--------0-0--0-0--0-0--0-0--|
D|-0-0--------0-0--------0-0--0-0--0-0--0-0--|
   . .        . .        . .  . .  . .  . .
1st Guitar
e|------------------------------------------------------------------------------|
B|------------------------------------------------------------------------------|
G|------------------------------------------------------------------------------| 
D|------------------------------------------------------------------------------|
A|-0000000000000000888888888888888877777777777777771010101010101010101010101010-|
D|------------------------------------------------------------------------------|
   
e|------------------------------------------------------------------------------|
B|------------------------------------------------------------------------------|
G|------------------------------------------------------------------------------| 
D|------------------------------------------------------------------------------|
A|-0000000000000000888888888888888877777777777777771010101010101010121212121212-|
D|------------------------------------------------------------------------------|
   
2nd Guitar
e|---------------------------------------------------------------------------|
B|---------------------------------------------------------------------------|
G|---------------------------------------------------------------------------| 
D|-00-000-000-000-088-888-888-888-877-777-777-777-71010-101010-101010-101010-|
A|-00-000-000-000-088-888-888-888-877-777-777-777-71010-101010-101010-101010-|
D|-00-000-000-000-088-888-888-888-877-777-777-777-71010-101010-101010-101010-|
   .. ... ... ... ... ... ... ... ... ... ... ... ..... ...... ...... ......

e|---------------------------------------------------------------------------|
B|---------------------------------------------------------------------------|
G|---------------------------------------------------------------------------| 
D|-00-000-000-000-088-888-888-888-877-777-777-777-71010-101010-101212-121212-|
A|-00-000-000-000-088-888-888-888-877-777-777-777-71010-101010-101212-121212-|
D|-00-000-000-000-088-888-888-888-877-777-777-777-71010-101010-101212-121212-|
   .. ... ... ... ... ... ... ... ... ... ... ... ..... ...... ...... ......
1st Guitar!
e|---------------------------------------------------------|
B|---------------------------------------------------------|
G|---------------------------------------------------------| 
D|-------------------------------10-8-7-8------------------|
A|-0-0-8-7-5-0-0-8-7-5-0-0-8-7-8---------------------------|
D|-0-0-------0-0-------0-0---------------------------------|
   . .       . .       . .                

e|---------------------------------------------------------|
B|---------------------------------------------------------|
G|---------------------------------------------------------| 
D|-------------------------------10-8-7-8b-----------------|
A|-0-0-8-7-5-0-0-8-7-5-0-0-8-7-8---------------------------|
D|-0-0-------0-0-------0-0---------------------------------|
   . .       . .       . .                
2nd Guitar!
e|-------------------------------------------|
B|-------------------------------------------|
G|-------------------------------------------| 2x's
D|-------------------------------------------|
A|-0-0--------0-0--------0-0--0-0--0-0--0-0--|
D|-0-0--------0-0--------0-0--0-0--0-0--0-0--|
   . .        . .        . .  . .  . .  . .

Right here theres gonna be a really mellow part with piano.
probably synthesized depending on wut we want it to sound
like.



e|------------------------------------------------------------------|
B|------------------------------------------------------------------|
G|------------------------------------------------------------------| 2x's
D|-0-00-00-0000-00-0-00-00-0000-00-0-00-00-0000-00-0-00-00-0000-00--|
A|-0-00-00-0000-00-0-00-00-0000-00-0-00-00-0000-00-0-00-00-0000-00--|
D|-0-00-00-0000-00-0-00-00-0000-00-0-00-00-0000-00-0-00-00-0000-00--|
   . .. .. .... .. . .. .. .... .. . .. .. .... .. . .. .. .... ..

drum fill (if at all possible)
1st Guitarist
e|--------------------------------|
B|--------------------------------|
G|-10--------12---------7---------| 
D|-x-(16x's)-x-(16x's)--x-(32x's)-|
A|-8---------10---------5---------|
D|--------------------------------|

e|--------------------------------------------|
B|--------------------------------------------|
G|-10--------12--------7----------------------| 
D|-x-(16x's)-x-(16x's)-x-(16x's)---0-0-0-00---|
A|-8---------10--------5-----------0-0-0-00---|
D|---------------------------------0-0-0-00---|
                                   . . . ..

2nd Guitar!
e|------------------------------------------------------|
B|------------------------------------------------------|
G|------------------------------------------------------| 
D|-8---------10---------5-------------------------------|
A|-8-(16x's)-10-(16x's)-5-(32x's)-----------------------|
D|-8---------10---------5-------------------------------|


e|------------------------------------------------------|
B|------------------------------------------------------|
G|------------------------------------------------------| 
D|-8---------10---------5---------0-0-0-00--------------|
A|-8-(16x's)-10-(16x's)-5-(16x's)-0-0-0-00--------------|
D|-8---------10---------5---------0-0-0-00--------------|
                                  . . . .
comments
We did not receive enough feedback on this tab! Please rate:
print report bad tab
1 2 3 4 5
I want to post or [tab]
guest
You may want to rate the tab now too:
select rating
Please do not post tabs as comments. Select "correction" instead!