Oops, an error
Loading. Please wait.

Autoplay Conspiracy - Asdfjkl Tab

914 views 1 this week
7 commentsread comments
1 2 3 4 5
please rate
add to favorites
launch autoscroll
font size
0
reset
how to read this tab
guitar tuner
Autoscroll
slow
fast
+/-
esc
set tempo
stop
Help us to improve Ultimate-Guitar.com Take our survey!
×
Author
Difficulty
Tuning
novice
D A D G B E
asdfjkl; :]

The Good Never Die Young
(i guess) ahaha


1st guitar - lead 
2nd guitar - rythm

tunning: drop D

Clean intro
e|-------------------------------------------------------|
B|---------10----------10---------10----------------10---|
G|---10----------10---------10--------10------10---------| 3x's 
D|------10----------10---------10--------10------10------|
A|-------------------------------------------------------|
D|-8-----------0----------8-----------------0------------|

e|--------------------|
B|-10~--------10~-----|
G|-10~--------10~-----| 
D|-10~--------10~-----|
A|--------------------|
D|-8-~--------0-~-----|

Now with distortion
Both guitars
e|------------------------|
B|------------------------|
G|------------------------| 2x's 
D|-8----------0-----------|
A|-8-(16x's)--0-(16x's)---|
D|-8----------0-----------|

1st guitar
e|--------------------------------------------------------------|
B|--------------------------------------------------------------|
G|--------------------------------------------------------------| 2x's 
D|-10-10-10-10-10-10--12-12-12-12-12-12--9-9-9-9------0---------|
A|-x--x--x--x--x--x---x--x--x--x--x--x---x-x-x-x------0-(16x's)-|
D|-8--8--8--8--8--8---10-10-10-10-10-10--7-7-7-7------0---------|

2nd guitar
e|------------------------|
B|------------------------|
G|------------------------| 2x's 
D|-8----------0-----------|
A|-8-(16x's)--0-(16x's)---|
D|-8----------0-----------|

repeat 2x's

Breakdown A
(both guitars throughout)
e|----------------------------------------------|
B|----------------------------------------------|
G|----------------------------------------------| 
D|-000000000--000000000--000000000--000000000---|
A|-000000000--000000000--000000000--000000000---|
D|-000000000--000000000--000000000--000000000---|
   .........  .........  .........  .........

e|--------------------------------------------------|
B|--------------------------------------------------|
G|--------------------------------------------------|  
D|-000000000~--000000000~--000000000~--000000000~---|
A|-000000000~--000000000~--000000000~--000000000~---|
D|-000000000~--000000000~--000000000~--000000000~---|
   .........   .........   .........   .........

e|-----------------------------------------------------------|
B|-----------------------------------------------------------|
G|------------9-------------9-------------10------------10---| 2x's 
D|-000000000--7--000000000--7--000000000--8--000000000--8----|
A|-000000000--7--000000000--7--000000000--8--000000000--8----|
D|-000000000--7--000000000--7--000000000--8--000000000--8----|

e|-------|
B|-------|
G|-------|  
D|-0-0~--|
A|-0-0~--|
D|-0-0~--|
   . .

1st guitar
e|-------------------------------------------|
B|-------------------------------------------|
G|-------------------------------------------|  
D|-------------------------------------------|
A|-5555-0000-5555-0000-7777-0000-8888-0000---|
D|-------------------------------------------|

e|-----------------------------------------------|
B|-----------------------------------------------|
G|-----------------------------------------------|  
D|-----------------------------------------------|
A|-5555-0000-7777-0000-8888-0000-10101010-0000---|
D|-----------------------------------------------|

e|-------------------------------------------|
B|-------------------------------------------|
G|-------------------------------------------| 2x's 
D|-------------------------------------------|
A|-5555-0000-5555-0000-7777-0000-8888-0000---|
D|-------------------------------------------|

2nd guitar
e|------------------------|
B|------------------------|
G|------------------------| 4x's
D|-000000000--000000000---|
A|-000000000--000000000---|
D|-000000000--000000000---|
   .........  .........  

Breakdown B
(both guitars throughout)
e|------------------------------------------------|
B|------------------------------------------------|
G|------------------------------------------------| 4x's
D|-00000--00-00-00-00-00--00000--00-00-00-00-00---|
A|-00000--00-00-00-00-00--00000--00-00-00-00-00---|
D|-00000--00-00-00-00-00--00000--00-00-00-00-00---|
   .....  .. .. .. .. ..  .....  .. .. .. .. ..

e|------------------------------------------------------------|
B|------------------------------------------------------------|
G|------------------------------------------------------------| 4x's
D|-00000~--00~-00~-00~-00~-00~--00000~--00~-00~-00~-00~-00~---|
A|-00000~--00~-00~-00~-00~-00~--00000~--00~-00~-00~-00~-00~---|
D|-00000~--00~-00~-00~-00~-00~--00000~--00~-00~-00~-00~-00~---|
   .....   ..  ..  ..  ..  ..   .....   ..  ..  ..  ..  ..

Breakdown C

1st guitar
e|-----------------------------------|
B|-----------------------------------|
G|-----------------------------------| 4x's 
D|-000000000-------------------000---|
A|-000000000-------------------000---|
D|-000000000-5p3p0-5p3p0-5p3p0-000---|
   .........                   ...

2nd guitar
e|-----------------------------------------|
B|-----------------------------------------|
G|-----------------------------------------| 4x's 
D|-000000000-------------------------000---|
A|-000000000-------------------------000---|
D|-000000000-15p13p0-15p13p0-15p13p0-000---|
   .........                         ...

Both guitars
e|-----|
B|-----|
G|-----|  
D|-0~--|
A|-0~--|
D|-0~--|
   

Both guitars
e|------------------------|
B|------------------------|
G|------------------------| 2x's 
D|-8----------0-----------|
A|-8-(16x's)--0-(16x's)---|
D|-8----------0-----------|

1st guitar
e|-------------------------------------------------------------|
B|-------------------------------------------------------------|
G|-------------------------------------------------------------| 2x's 
D|-10-10-10-10-10-10--12-12-12-12-12-12--9-9-9-9-----0---------|
A|-x--x--x--x--x--x---x--x--x--x--x--x---x-x-x-x-----0-(16x's)-|
D|-8--8--8--8--8--8---10-10-10-10-10-10--7-7-7-7-----0---------|

2nd guitar
e|------------------------|
B|------------------------|
G|------------------------| 2x's 
D|-8----------0-----------|
A|-8-(16x's)--0-(16x's)---|
D|-8----------0-----------|

Breakdown D
(both guitars)
e|------------------------|
B|------------------------|
G|------------------------| 2x's
D|-000000000--000000000---|
A|-000000000--000000000---|
D|-000000000--000000000---|
   .........  ......... 


Incredibly slow
e|----------------------|
B|----------------------|
G|----------------------| 2x's 
D|-000000000--0000000---|
A|-000000000--0000000---|
D|-000000000--0000000---|
   .........  ....... 

e|------------------------------------------------------------|
B|------------------------------------------------------------|
G|------------------------------------------------------------| 3x's
D|-000000000~--0000000~--000000000~--000000---5---3---2---3---|
A|-000000000~--0000000~--000000000~--000000---5---3---2---3---|
D|-000000000~--0000000~--000000000~--000000---5---3---2---3---|
   .........   .......   .........   ......

1st guitar
e|-----|
B|-----|
G|-----|  
D|-0---|
A|-0---|
D|-0---|

2nd guitar
e|-----|
B|-----|
G|-----|  
D|-12--|
A|-12--|
D|-12--|
Suggest correction
Give kudos to tab author, rate the tab!
1 2 3 4 5
comments
print report bad tab
7 comments total. Showing first comments.
+1 reply
Ibanezsweep45 185 wrote on October 18 2008, 10:29 pm

wow i typed in asdf for fun and actually found a song

0 reply
Brennon 10 wrote on November 4 2008, 09:42 pm

lmao same here

0 reply
tyler_j 1,499 wrote on November 29 2008, 11:19 pm

sames

guest
You may want to rate the tab now too:
select rating
Wanna post a correction for this tab? Suggest correction