Oops, an error
Loading. Please wait.

Autoplay Conspiracy - Break Me Down Tab

79 views 1 this week
no commentswrite comment
1 2 3 4 5
please rate
add to favorites
launch autoscroll
font size
0
reset
how to read this tab
guitar tuner
Autoscroll
slow
fast
+/-
esc
set tempo
stop
Help us to improve Ultimate-Guitar.com Take our survey!
×
Break Me Down


D|-----------------------------------------------------------------|
A|-----------------------------------------------------------------|
F|-----------------------------------------------------------------|8x's
C|----3h2-0-2h3-0-3h5-05h7-0-8-5~----3h2-0-2h3-0-3h5-0-5h7-0-8-2~--|
G|-00-----------------------------00-------------------------------|
C|-00-----------------------------00-------------------------------|
.. ..
Guitar 2
D|------------------------------------|
A|------------------------------------|
F|------------------------------------| 3x's
C|-0---------3---------5---------2----|
G|-0---------3---------5---------2----|
C|-0---------3---------5---------2----|

Chorus
D|-------------------------------------------|
A|-------------------------------------------|
F|-------------------------------------------| 2x's
C|---5---------8---------0---------3---------|
G|---5-(16x's)-8-(16x's)-0-(16x's)-3-(16x's)-|
C|---5---------8---------0---------3---------|

crazy lead riff that i dont know cause u wrote it ahahahah!

then ... after chorus is repeted twice
D|-------|
A|-------|
F|-------|
C|---5~--|
G|---5~--|
C|---5~--|
"BREAK ME DOWN AS I FALL TO MY KNEES"
fill on drums

i got lazy and didnt write the strumming pattern but yal know how it goes
D|----------------------|
A|----------------------|
F|-------------2--------| 2x's
C|-0-3-----0-3---3-2----|
G|-----4-0-----------4--|
C|----------------------|

2nd guitar
D|------------------------------------------------------------|
A|------------------------------------------------------------|
F|------------------------------------------------------------| 3x's
C|-000-000---000-000-000---000-000-000---000-000-000-000-000--|
G|-000-000---000-000-000---000-000-000---000-000-000-000-000--|
C|-000-000---000-000-000---000-000-000---000-000-000-000-000--|

goes back into first riff
D|-----------------------------------------------------------------|
A|-----------------------------------------------------------------|
F|-----------------------------------------------------------------|8x's
C|----3h2-0-2h3-0-3h5-05h7-0-8-5~----3h2-0-2h3-0-3h5-0-5h7-0-8-2~--|
G|-00-----------------------------00-------------------------------|
C|-00-----------------------------00-------------------------------|
.. ..
Guitar 2
D|---------------------------------------------------|
A|---------------------------------------------------|
F|---------------------------------------------------| 3x's
C|-0---------3---------5---------2-------------------|
G|-0---------3---------5---------2-------------------|
C|-0---------3---------5---------2-------------------|

chorus again
D|-------------------------------------------|
A|-------------------------------------------|
F|-------------------------------------------| 2x's
C|---5---------8---------0---------3---------|
G|---5-(16x's)-8-(16x's)-0-(16x's)-3-(16x's)-|
C|---5---------8---------0---------3---------|

end on
D|-------|
A|-------|
F|-------|
C|-------|
G|---1---|
C|---2---|
.
then fill on drums...

lead
D|-----------------------------------------------------------|
A|-----------------------------------------------------------|
F|-----------------------------------------------------------| 4x's
C|-00-3-5-3-2p0-2p0-2p0-3-5--------00-3-5-3-2p0-2p0-2p0------|
G|-00-----------------------(3x's)-00-------------------3-5--|
C|-00------------------------------00------------------------|
.. ..

2nd guitar
D|-------------------------------------------|
A|-------------------------------------------|
F|-------------------------------------------|
C|--8---------7---------5---------0----------|
G|--8-(16x's)-7-(16x's)-5-(16x's)-0-(16x's)--|
C|--8---------7---------5---------0----------|
Suggest correction new What's this?
You can suggest a correction to this tab. Community and Mods will review your correction and vote to approve or reject it.
comments
We did not receive enough feedback on this tab! Please rate:
print report bad tab
1 2 3 4 5
guest
You may want to rate the tab now too:
select rating
Please do not post tabs as comments. Select "correction" instead!