Oops, an error
Loading. Please wait.

Autoplay Conspiracy - Mcdonalds Doesnt Kill People Tomatoes Do Tab

142 views 1 this week
no commentswrite comment
1 2 3 4 5
please rate
add to favorites
launch autoscroll
font size
0
reset
how to read this tab
guitar tuner
Autoscroll
slow
fast
+/-
esc
set tempo
stop
Help us to improve Ultimate-Guitar.com Take our survey!
×
Author
Difficulty
Tuning
novice
D A D G B E
Mc Donald's Doesn't Kill People, Tomatoes Do
Drop D
Guitar 1: Lead
Guitar 2: Rhthym


Intro w/ Breakdown
Both Guitars (1&2)
e|-15~--------------------------------------------------------|
B|-19~--------------------------------------------------------|
G|------------------------------------------------------------|
D|----000000--00-00-00-00-00-00000----00-00-00-00-00--000000~-|
A|----000000--00-00-00-00-00-00000----00-00-00-00-00--000000~-|
D|----000000--00-00-00-00-00-00000-3~-00-00-00-00-00--000000~-|
      ......  .. .. .. .. .. .....    .. .. .. .. ..  .....
Intro Riff 
Guitar 1
e|-----------------------------------------------------------------|
B|-----------------------------------------------------------------|
G|-----------------------------------------------------------------|8x's
D|----3h2-0-2h3-0-3h5-05h7-0-8-5~----3h2-0-2h3-0-3h5-0-5h7-0-8-2~--|
A|-00-----------------------------00-------------------------------|
D|-00-----------------------------00-------------------------------|
   ..                             ..
Guitar 2
e|---------------------------------------------------|
B|---------------------------------------------------|
G|---------------------------------------------------|4x's
D|-0---------3---------5---------2---------8---------|
A|-0-(32x's)-3-(32x's)-5-(32x's)-2-(16x's)-8-(16x's)-|
D|-0---------3---------5---------2---------8---------|
   .         .         .         .         .

Both Guitars
e|-------|
B|-------|
G|-------|
D|---0~--|
A|---0~--|
D|---0~--|

Move into 2nd Riff
Guitar 1
e|-----------------------------------------------------------------|
B|-----------------------------------------------------------------|
G|-----------7-9-0-10-0-12-0-10-0-9~-----------7-9-0-10-0-12-0-14b-|4x's
D|-00-10-9-0-------------------------00-10-9-0---------------------|
A|-00--------------------------------00----------------------------|
D|-00--------------------------------00----------------------------|
   ..                                ..
****(on 2nd time make sure to make the 14 bend really noticable)****

Guitar 2
e|-----------------------------------------------------------------|
B|-----------------------------------------------------------------|
G|-----------------------------------------------------------------|8x's
D|-00-0-00--00-0-00--00-0-00-5-3-00-0-00--00-0-00--00-0-00-555-333-|
A|-00-0-00--00-0-00--00-0-00-5-3-00-0-00--00-0-00--00-0-00---------|
D|-00-0-00--00-0-00--00-0-00-5-3-00-0-00--00-0-00--00-0-00---------|
   .. . ..  .. . ..     .. . ..  .. . ..

e|----------------------------------------------------------|
B|----------------------------------------------------------|
G|----------------------------------------------------------|
D|----------------------------------------------------------|
A|----------------------------------------------------------|
D|-////////////////////////////////////////////////////////-|

Riff 3 
Guitar 1
e|--------------------------------------------------|
B|--------------------------------------------------|
G|--------------------------------------------------|4x's
D|---00-3-5-3-2-2-2-3-5-----------3-5-3-2-2-2-------|
A|---00-----------------(3x's)-00-------------5-3---|
D|---00------------------------00-------------------|
     ..                        ..
Guitar 2
e|---------------------------------|
B|---------------------------------|
G|---------------------------------|2x's
D|--8---------7---------5----------|
A|--8-(16x's)-7-(16x's)-5-(32x's)--|
D|--8---------7---------5----------|

e|---------------------------------|
B|---------------------------------|
G|---------------------------------|2x's
D|-8---------10---------12---------|
A|-8-(16x's)-10-(16x's)-12-(32x's)-|
D|-8---------10---------12---------|

Guitar 2 only
e|--------|
B|--------|
G|--------|
D|---12~--|
A|---12~--|
D|---12~--|

Both Guitars
e|------------------------------------------------------------|
B|------------------------------------------------------------|
G|------------------------------------------------------------|4x's
D|----000000--00-00-00-00-00-00000----00-00-00-00-00--000000~-|
A|----000000--00-00-00-00-00-00000----00-00-00-00-00--000000~-|
D|----000000--00-00-00-00-00-00000-3~-00-00-00-00-00--000000~-|
      ......  .. .. .. .. .. .....    .. .. .. .. ..  .....

e|-------|
B|-------|
G|-------|
D|---0~--|
A|---0~--|
D|---0~--|

Suggest correction
What's this?
You can suggest a correction to this tab. Community and Mods will review your correction and vote to approve or reject it.
comments
We did not receive enough feedback on this tab! Please rate:
print report bad tab
1 2 3 4 5
guest
You may want to rate the tab now too:
select rating
Please do not post tabs as comments. Select "correction" instead!