Oops, an error
Loading. Please wait.

Awaken - Instrumental Tab

266 views 1 this week
no commentswrite comment
1 2 3 4 5
please rate
add to favorites
launch autoscroll
font size
0
reset
how to read this tab
guitar tuner
Autoscroll
slow
fast
+/-
esc
set tempo
stop
Help us to improve Ultimate-Guitar.com Take our survey!
×
Title: Instrumental
Band: Awaken
Album: A Force that Binds (EP)
Tabbed by: Adam Newon
adamnewon@gmail.com
tabbed on 6/6/05

*=palm mute
/=slide
~=let ring out

homemade band from so cal, who are unsigned (from what i know).

intro  x11        Finish
e----------------|---------|
B----------------|---------|
G----6-----6h7p7-|----6/11-|
D-55---000-------|-55------|
A-55-------------|-55------|
E-33-------------|-33------|
  **   ***

riff 1
e-----------------------------------------------------------------------|
B-----------------------------------------------------------------------|
G-11-11-11-111111/13-13-13-13-131313/14-14-14-141414-18-16-14--16-14-13-|
D-----------------------------------------------------------------------|
A-----------------------------------------------------------------------|
E-----------------------------------------------------------------------|
conintued
e-------------------------------------------------------|
B-------------------------------------------------------|
G-11-11-11-111111/13-13-13-131313-13h14/9-999-6h7/4-444-|
D-------------------------------------------------------|
A-------------------------------------------------------|
E-------------------------------------------------------|
continued
e------------------------------------------------|
B------------------------------------------------|
G-11-11-11-111111/13-13-13-131313/14-14-14h13-13-|
D------------------------------------------------|
A------------------------------------------------|
E------------------------------------------------|
continued
e-----------------------------------------------------------------------------------|
B-----------------------------------------------------------------------------------|
G-13-13-13h14/11-11-13-13-13h14/11-11-13-13-13h1414-11-11-13-13h14/11-11-13-13-18~--|
D-----------------------------------------------------------------------------------|
A-----------------------------------------------------------------------------------|
E-----------------------------------------------------------------------------------|
                                                * *

bridge  x3            Finish
e------------------|---------------|
B------------------|---------------|
G----67-6-----67-6-|----67-7/9/7-6-|
D-5-------11-------|-5-------------|
A-5-------11-------|-5-------------|
E-3--------9-------|-3-------------|


lead
e--------------------------------------------------|
B--------------------------------------------------|
G-13h14p13-111311-13-13h141414-161413-13h14-161413-|
D--------------------------------------------------|
A--------------------------------------------------|
E--------------------------------------------------|
continued
e-------------------------------------------------------------|
B-------------------------------------------------------------|
G-13-13h14/11-11-13-13-13h14/11-11-1111-1314-1413-13-13h14/11-|
D-------------------------------------------------------------|
A-------------------------------------------------------------|
E-------------------------------------------------------------|
                                    * *
continued
e---------------|
B---------------|
G-18161416141311
D---------------|
A---------------|
E---------------|


riff 2
e------------------------------------------------------|
B------------------------------------------------------|
G-11-11-11-111111/9-9-9-9-999/7-7-7-7-777-11-1111-976--|
D------------------------------------------------------| x2
A------------------------------------------------------|
E------------------------------------------------------|
                                              * *
continued
e------------------------------------------------|
B------------------------------------------------|
G-11-11-11-111111/13-13-13-131313/14-14-14h13-13-|
D------------------------------------------------|
A------------------------------------------------|
E------------------------------------------------|
continued
e-----------------------------------------------------------------------------------|
B-----------------------------------------------------------------------------------|
G-13-13-13h14/11-11-13-13-13h14/11-11-13-13-13h1414-11-11-13-13h14/11-11-13-13-18~--|
D-----------------------------------------------------------------------------------|
A-----------------------------------------------------------------------------------|
E-----------------------------------------------------------------------------------|
                                                * *


bridge  x2
e------------------|
B------------------|
G----67-6-----67-6-|
D-5-------11-------|
A-5-------11-------|
E-3--------9-------|

back to intro
e----------------|
B----------------|
G----6-----6h7p7-|
D-55---000-------| x8
A-55-------------|
E-33-------------|
  **   ***

riff 3
e------------------------------------------------------|
B------------------------------------------------------|
G-11-11-11-111111/9-9-9-9-999/7-7-7-7-777-11-1111-976--|
D------------------------------------------------------| x2
A------------------------------------------------------|
E------------------------------------------------------|
                                              * *
continued
e------------------------------------------------|
B------------------------------------------------|
G-11-11-11-111111/13-13-13-131313/14-14-14h13-13-|
D------------------------------------------------|
A------------------------------------------------|
E------------------------------------------------|
continued x2                                                           last note on 2nd
e--------------------------------------------------------------------|-------------|
B--------------------------------------------------------------------|-------------|
G-11-11-11-111111/13-13-13-131313/16-16-16-16-161616-141414-13-14-13-|-18~---------|
D--------------------------------------------------------------------|-------------|
A--------------------------------------------------------------------|-------------|
E--------------------------------------------------------------------|-------------|

bridge
e------------------|
B------------------|
G----67-6-----67-6-|
D-5-------11-------|
A-5-------11-------|
E-3--------9-------|

outro
e-----------------------|
B-----------------------|
G----67-6----9-14-13-11-|
D-5-------11------------|
A-5-------11------------|
E-3--------9------------|
Suggest correction
Give kudos to tab author, rate the tab!
1 2 3 4 5
comments
print report bad tab
guest
You may want to rate the tab now too:
select rating
Wanna post a correction for this tab? Suggest correction