Oops, an error
Loading. Please wait.

Axe Crazy - Lesson Learned Lead Tab

112 views 1 this week
no commentswrite comment
1 2 3 4 5
please rate
add to favorites
launch autoscroll
font size
0
reset
how to read this tab
guitar tuner
Autoscroll
slow
fast
+/-
esc
set tempo
stop
Help us to improve Ultimate-Guitar.com Take our survey!
×
Author
Difficulty
advanced
-------------------------------------------------------------------------------
                             Lesson Learned- Axe Crazy
-------------------------------------------------------------------------------
Tabbed by: AxeCrazy
Email: http://www.facebook.com/profile.php?
id=640017123&v=wall&story_fbid=143184585710823#!/pages/Axe-Crazy/117629278247579?ref=ts



Tuning: Standard

e|-11-8-6-11-8-6-11-8-6-11-8-6-8-8-8-8-8-8-8-15-13-15-13-15-13---------------|
B|-------------------------------------------------------------16-13-16-13---|
G|---------------------------------------------------------------------------|
D|---------------------------------------------------------------------------|
A|---------------------------------------------------------------------------|
E|---------------------------------------------------------------------------|

e|-----4-----4-----4-6---------------------------------------------------20--|
B|-3-5---3-5---3-5-----13-4-1-13-4-1-13-4-1-13-4-1-13-4-1-13-4-1-4-1-4-1-----|
G|---------------------------------------------------------------------------|
D|---------------------------------------------------------------------------|
A|---------------------------------------------------------------------------|
E|---------------------------------------------------------------------------|

e|-----------------------6---6---6-6-8-11-8-11-8-11-8-11-8-11-8-11-8-11-8----|
B|-------------------6-8---8---8---------------------------------------------|
G|---------------5-8---------------------------------------------------------|
D|-----------5-8-------------------------------------------------------------|
A|-----6-6-8-----------------------------------------------------------------|
E|-6-8-----------------------------------------------------------------------|

e|---------------------------------------------------------------------------|
B|---------------------------------------------------------------------------|
G|---------9----------9-9-10-9-5-9---------7------7--7--7--7--9--7--7--------|
D|------10---10----10--------------------8---8-------8--8--8-10--8--8--------|
A|---10---------10---------------------8-------8-----8--8--8-10--8--8--------|
E|-8---------------------------------6---------------6--6--6--8--6--6--------|

e|-------2-------------1--------------------------------------3-3-3-3-3------|
B|------------3---------------1---------5------------6---5-3--5-5-6-6-5------|
G|---2-------------2--------2---------------5-----------------5-5-5-5-5------|
D|-0---0---0-----3---3----3---------5------------5------------5-5-5-5-5------|
A|--------------------------------3---3---3----3---3---3------3-3-3-3-3------|
E|---------------------------------------------------------------------------|

e|---------------------------------------------------------------------------|
B|---------------------------------------------------------------------------|
G|-----------------------------------------------------------5---------------|
D|-------------------------------------------------------5-8-----------------|
A|-----6---8-8-6-----6--------------6---8-10-8-6-----6-8---------------------|
E|-6-8---8-------6-8---8-6-8-8--6-8---6----------6-8-------------------------|

e|---------------------------------------------------------------------------|
B|---------------------------------------------------------------------------|
G|--------------------------12-12-10-8---------------------------------------|
D|-8-10-8-10-8-10-8-10-8-10------------10------------------------------------|
A|--------------------------10-10--8-6---------------------------------------|
E|-------------------------------------8--10-8-10-10-10-8-10-10-10-10-13-10--|

e|----------------------------------6-8-6-8-8-8-8-11-8-----------------------|
B|----------------------------------6-8-6-8-8----------11-8------------------|
G|-----------8---------8-8-8-5------------------------------10-8-------------|
D|-8-10-8-10---10-8-10---------8-10------------------------------10-10-8-10--|
A|---------------------------------------------------------------------------|
E|---------------------------------------------------------------------------|


************************************

| /   slide up
| \   slide down
| h   hammer-on
| p   pull-off
| ~   vibrato
| +   harmonic
| x   Mute note
| b   Bend
| pb  Pre-bend
| br  Bend release
| pbr Pre-bend release
| brb Bend release bend

************************************
Suggest correction
What's this?
You can suggest a correction to this tab. Community and Mods will review your correction and vote to approve or reject it.
comments
We did not receive enough feedback on this tab! Please rate:
print report bad tab
1 2 3 4 5
guest
You may want to rate the tab now too:
select rating
Please do not post tabs as comments. Select "correction" instead!