Oops, an error
Loading. Please wait.

Axe Crazy - Stand Up Tab

41 views 1 this week
no commentswrite comment
1 2 3 4 5
please rate
add to favorites
launch autoscroll
font size
0
reset
how to read this tab
guitar tuner
Tab Pro tools
  • play this tab
  • loop segment
  • change instrument
  • show fretboard
  • metronome
×
Best way to learn
"Axe Crazy - Stand Up"
Autoscroll
slow
fast
+/-
esc
set tempo
stop
Contributor
Difficulty
intermediate
-------------------------------------------------------------------------------
                             Stand Up - Axe Crazy
----------------------------------------------------------------------------
Shortened Version of Stand Up.
---
Tabbed by: AxeCrazy
Email: Kyletheaxe@hotmail.com

Tuning: Standard

e|---------------------------------------------------------------------------|
B|---------------------------------------------------------------------------|
G|---------------------------------------------------------------------------|
D|---------------------------------------------------------------------------|
A|---------------------------------------------------------------------------|
E|-0000000000000000000000003003000000000000000000000000000030030000----------|

e|---------------------------------------------------------------------------|
B|---------------8---------------12-10-8---12-10-8---------8-----------8-8---|
G|-9-7-9-7-9-7-9---9-9-7-8-9-7-9---------9---------9-7-8-9---9-7-9-7-9-------|
D|---------------------------------------------------------------------------|
A|---------------------------------------------------------------------------|
E|---------------------------------------------------------------------------|

e|---------------------------------------------------------------------------|
B|-10-8-11-10-8---------------------8----------------------------------------|
G|--------------9-9-7-9-7-9-7-9-7-9---9----------------2-4-------------------|
D|---------------------------------------2-2-2-2-2-2-2-2-4--------2-2-2-2-2--|
A|---------------------------------------2-2-2-2-2-2-2-0-2----2-2-2-2-2-2-2--|
E|---------------------------------------0-0-0-0-0-0-0----------3-0-0-0-0-0--|

e|-12-10-12-15-12-10-12----10------------------------------------------------|
B|----------------------------12-11-10----------8-------8-10-8-10-11-10-8----|
G|-------------------------------------10-9-7-9---9-7-9-------------------9--|
D|---------------------------------------------------------------------------|
A|---------------------------------------------------------------------------|
E|---------------------------------------------------------------------------|

e|-12-12-10-12-12-12-12-10-12-12-15-12-10-15-12-10-15-12-10-10-12------------|
B|---------------------------------------------------------------------------|
G|------------------------------------------------------------------9-9-9----|
D|------------------------------------------------------------------9-9-9----|
A|------------------------------------------------------------------7-7-7----|
E|---------------------------------------------------------------------------|

e|-0-12-0-0-12-0-0-12-0-0-14-15-14-12-12-12-10-12-15-0-19-19-19-19-19-19-----|
B|---------------------------------------------------------------------------|
G|---------------------------------------------------------------------------|
D|---------------------------------------------------------------------------|
A|---------------------------------------------------------------------------|
E|---------------------------------------------------------------------------|

e|---------------------------------------------------------------------------|
B|---------------------------------------------------------------------7-----|
G|---------------------------------------------------------------------7-----|
D|-11-11-11-9--11-11-11-11-11-9--11---4-4-4-4-4--4-4-4-4-4-4-4-4-4-4-4-4-----|
A|-9--9--9--7--9--9--9--9--9--7--9--0-4----------4---------4-----4-----------|
E|------------------------------------2----------2---------2-----2-----------|

e|-----------------------------------------14-12-10-14-12-10-14-12-10-12-----|
B|-----------------------------------------------------------------------12--|
G|-2-4-2-4-2-4-2-4-----------------------2-------------------------------11--|
D|-----------------5---2-5-5-2-5-5-2-5-5-2-------------------------------9---|
A|---------------------------------------0-----------------------------------|
E|---------------------------------------------------------------------------|


************************************

| /   slide up
| \   slide down
| h   hammer-on
| p   pull-off
| ~   vibrato
| +   harmonic
| x   Mute note
| b   Bend
| pb  Pre-bend
| br  Bend release
| pbr Pre-bend release
| brb Bend release bend

************************************
comments
We did not receive enough feedback on this tab! Please rate:
print report bad tab
1 2 3 4 5
I want to post or [tab]
guest
You may want to rate the tab now too:
select rating
Please do not post tabs as comments. Select "correction" instead!