Oops, an error
Loading. Please wait.

Axecrazy - Guardian Angel Tab

52 views 1 this week
no commentswrite comment
1 2 3 4 5
please rate
add to favorites
launch autoscroll
font size
0
reset
how to read this tab
guitar tuner
Autoscroll
slow
fast
+/-
esc
set tempo
stop
Help us to improve Ultimate-Guitar.com Take our survey!
×
Contributor
Difficulty
AxeCrazy 215
novice
-------------------------------------------------------------------------------
                             Guardian Angel - Axe Crazy
-------------------------------------------------------------------------------
Tabbed by: AxeCrazy
Email: http://www.facebook.com/home.php?#!/pages/Axe-Crazy/117629278247579?ref=ts

Tuning: Standard

Part One 1/3

e|---------------------------------------------------------------------------|
B|-----5-----5---5-----5-----5---5-----3-----3-----5-----5-------------------|
G|---6-----6---------4-----4---------2-----2-----4-----4---------------------|
D|-7-----7-----7---6-----6-----6---4-----4-----6-----6-----------------------|
A|---------------------------------------------------------------------------|
E|---------------------------------------------------------------------------|

Part One 2/3

e|-----5-----5---5-----4-----4---4-----2-----2---2-----4-----4---4-----------|
B|-----5-----5---5-----5-----5---5-----3-----3---3-----5-----5---5-----------|
G|---6-----6---------4-----4---------2-----2---------4-----4-----------------|
D|-7-----7-----7---6-----6-----6---4-----4-----4---6-----6-----6-------------|
A|---------------------------------------------------------------------------|
E|---------------------------------------------------------------------------|

Part One 3/3

e|-----4---4---4---4-----4---4---4---4-----2---2---2---2-|----4---4---4---4--|
B|-----5-7-5---5-7-5-----5-7-5---5-7-5-----3-5-3---3-5-3-|----5-7-5---5-7-5--|
G----6-----------------4-----------------2---------------|--4----------------|
D|-7---------7-------6---------6-------4---------4-------|6---------6--------|
A|-------------------------------------------------------|-------------------|
E|-------------------------------------------------------|-------------------|

Ending to Part One ( Do this after doing everything from part one's 3/3 except the part 
the | line twice)

e|---------------------------------------------------------------------------|
B|-----1-------0-------------------------------------------------------------|
G|---2-------1---------------------------------------------------------------|
D|-3-----3-2-----3-----------------------------------------------------------|
A|---------------------------------------------------------------------------|
E|---------------------------------------------------------------------------|

Part Two 1/2

e|---------------------------------------------------------------------------|
B|---------------------------------------------------------------------------|
G|-----2-------2-----5--------5-------7-------7-------5-------4--------------|
D|---2---2---2------5---5---5---5---7---7---7---7---5---5---4---4------------|
A|-0-------0----0-3-------3-------5-------5-------3-------2------------------|
E|---------------------------------------------------------------------------|

Part Two 2/2

e|---------------------------------------------------------------------------|
B|---------------------------------------------------------------------------|
G|-----2-------2-------5-------5-------7-------7-------9----9----------------|
D|---2---2---2-------5---5---5---5---7---7---7---7---9------9----------------|
A|-0-------0-----0-3-------3-------5-------5-------7------7-7----------------|
E|---------------------------------------------------------------------------|

Part Three 1/1

e|-----------------------------0-----------------------0---------------------|
B|-5--5--3--5--5-5--5-5-5-5--3-2--5--5--3--5--5--5--3--2---------------------|
G|-6--4--2--4--6-6--4-4-4-4--2-2--6--4--2--4--6--4--2--2---------------------|
D|-7--6--4--6--7-7--6-6-6-6--4-2--7--6--4--6--7--6--4--2---------------------|
A|-----------------------------0-----------------------0---------------------|
E|---------------------------------------------------------------------------|

Part Four 1/2

e|----------------------0-----------------------0----------------------------|
B|-5--5--3--5--5--5--3--2--5--5--3--5--5--5--3--2----------------------------|
G|-6--4--2--5--6--5--2--2--6--4--2--4--6--4--2--2----------------------------|
D|-7--6--4--6--7--6--4--2--7--6--4--6--7--6--4--2----------------------------|
A|----------------------0-----------------------0----------------------------|
E|---------------------------------------------------------------------------|

Part Four 2/2

E|----------------------0----------------------------------------------------|
B|-5--5--3--5--5--5--3--2-5--5--3--5--5--5--1--0-----------------------------|
G|-6--4--2--4--6--4--2--2-6--4--2--4--6--4--2--1-----------------------------|
D|-7--6--4--6--7--6--4--2-7--6--4--6--7--6--3--2-----------------------------|
A|----------------------0----------------------------------------------------|
E|---------------------------------------------------------------------------|

Part Five 1/1

e|---------------------------------------------------------------------------|
B|---------------------------------------------------------------------------|
G|-2-2-4-6-4-2-2-2-----2-2-4-6-4-2-2-2---------------------------------------|
D|-2-2-4-6-4-2-2-2-6-7-2-2-4-6-4-2-2-2-6-7-----------------------------------|
A|-0-0-2-4-2-0-0-0-6-7-0-0-2-4-2-0-0-0-6-7-----------------------------------|
E|-----------------4-5-----------------4-5-----------------------------------|

The order of parts should go:

Part 1

Part 2

Part 3

Part 4

Part 4

Part 5

Part 1

Part 2

Part 3

Part 4

Part 4

Part 5

Part 1

Part 2

Part 3

Lyrics are avaliable at:

http://www.facebook.com/?ref=logo#!/pages/Axe-Crazy/117629278247579?ref=ts
Suggest correction new What's this?
You can suggest a correction to this tab. Community and Mods will review your correction and vote to approve or reject it.
comments
We did not receive enough feedback on this tab! Please rate:
print report bad tab
1 2 3 4 5
guest
You may want to rate the tab now too:
select rating
Please do not post tabs as comments. Select "correction" instead!