Oops, an error
Loading. Please wait.

Axecrazy - Lesson Learned Tab

11 views 1 this week
no commentswrite comment
1 2 3 4 5
please rate
add to favorites
launch autoscroll
font size
0
reset
how to read this tab
guitar tuner
Tab Pro tools
  • play this tab
  • loop segment
  • change instrument
  • show fretboard
  • metronome
×
Best way to learn
"Axecrazy - Lesson Learned"
Autoscroll
slow
fast
+/-
esc
set tempo
stop
Contributor
Difficulty
novice
-------------------------------------------------------------------------------
                             Lesson Learnt - AxeCrazy
-------------------------------------------------------------------------------
Tabbed by:Axe Crazy
Email: http://www.facebook.com/?ref=logo#!/pages/Axe-Crazy/117629278247579?ref=ts

BEFORE YOU START PLAYING, PLEASE NOTE THAT THIS IS ONLY THE BACKGROUND GUITAR (I KNOW, 
WORD, BUT IT'S WHAT I CALL IT) I SHALL POST LEAD GUITAR LATER.

Tuning: Standard

e|---------------------------------------------------------------------------|
B|---------------------------------------------------------------------------|
G|---------------------------------------------------------------------------|
D|----------------------------8-10--8----------------------------------------|
A|-8-10-10--8-10-10--8-10-10--6--8--6--10--8-10--8-10-10--8-10-10--8-10-10---|
E|-6--8--8--6--8--8--6--8--8------------8--6--8--6--8--8--6--8--8--6--8--8---|

e|---------------------------------------------------------------------------|
B|---------------------------------------------------------------------------|
G|---------------------------------------------------------------------------|
D|-8--3--5--3--------------------------------8-------------------------------|
A|-8--3--5--3--8-10-10--8-10-10--8-10--8-10--6-10--------6-------------------|
E|-6--1--3--1--6--8--8--6--8--8--6--8--6--8-----8--6--8-----8--6--8--6--8-8--|

e|---------------------------------------------------------------------------|
B|---------------------------------------------------------------------------|
G|---------------------------------------------------------------------------|
D|----------------------------------------------------8----------------------|
A|--8----6-----8--6-----------6-----8-10--8-10--8-10--6-10--8-10--8-10--8----|
E|-----8----8--------8--6--8-----8--6--8--6--8--6--8-----8--6--8--6--8--6----|

e|---------------------------------------------------------------------------|
B|---------------------------------------------------------------------------|
G|---------------------------------------------------------------------------|
D|10--------------------8----------------------------------------------10----|
A|-8--8-10--8-10--8-10--6--------6--8-10--8--6-----8--6-----6--8--6----10----|
E|----6--8--6--8--6--8-----6--8-----------------8--------8-----------8--8----|

e|---------------------------------------------------------------------------|
B|---------------------------------------------------------------------------|
G|---------------------------------------------------------------------------|
D|---------------------------------------------------2-------------------2---|
A|---------------------------------------------------2-------------------2---|
E|-12-14-12-11-12-11-9-11-9-7-11-7-5-9-5-3-7-3-2-5-2-0-3-0-3-0-3-0-3-0-3-0---|

e|---------------------------------------------------------------------------|
B|---------------------------------------------------------------------------|
G|---------9---------7---------9-------------------9---------7---------------|
D|---------9---------7---------9---------7---------9---------7---------------|
A|---------7---------5---------7---------7---------7---------5---------2-2---|
E|-0-0-0-0---0-0-0-0---0-0-0-0---0-0-0-0-5-0-0-0-0---0-0-0-0---0-0-0-0-0-0---|

e|---------------------------------------------------------------------------|
B|---------------------------------------------------------------------------|
G|-9-7-9-7-9--9-7-9-------9-7-9-7-9--9-7-9-----------------9-9-----9-9-9-9---|
D|-9-7-9-7-9--9-7-9-8-7-5-9-7-9-7-9--9-7-9-------------2-2-9-9-2-2-9-9-9-9---|
A|-7-5-7-5-7--7-5-7-8-7-5-7-5-7-5-7--7-5-7-------------2-2-7-7-2-2-7-7-7-7---|
E|------------------6-5-3------------------6-5-3-5-3-0-0-0-----0-0-----------|

e|---------------------------------------------------------------------------|
B|---------------------------------------------------------------------------|
G|---------------------------------------------------------------------------|
D|-------8-8----------8---------------8-----------------------8--------------|
A|-8-----6-6-8-8-10-8-6-8-------------6-8-8-8-8-8-8-8-10-10-8-6-10-8-10------|
E|-6-8-8----------------6-8-8-8-8-8-8----------------------------8-6--8------|

Note: I never really understood how to position these symbols, so I don't use them. I 
that I'm doing enough work already by tabbing the song for you, so, if you can play this, 
can sure as smurf choose where to put this yourself.
************************************

| /   slide up
| \   slide down
| h   hammer-on
| p   pull-off
| ~   vibrato
| +   harmonic
| x   Mute note
| b   Bend
| pb  Pre-bend
| br  Bend release
| pbr Pre-bend release
| brb Bend release bend

************************************
comments
We did not receive enough feedback on this tab! Please rate:
print report bad tab
1 2 3 4 5
I want to post or [tab]
guest
You may want to rate the tab now too:
select rating
Please do not post tabs as comments. Select "correction" instead!