Oops, an error
Loading. Please wait.

B A Robertson - Bang Bang Bass Tab

10 views 1 this week
no commentswrite comment
1 2 3 4 5
3 more votes to show rating
add to favorites
launch autoscroll
font size
0
reset
guitar tuner
Autoscroll
slow
fast
+/-
esc
set tempo
stop
Help us to improve Ultimate-Guitar.com Take our survey!
×
Author
Bang Bang
Single release by B A Robertson in 1979. Reached #2 in UK
Tab by bass50611. Well played track of the late 70’s and early 80’s
Think it’s more or less as original. Note - bass runs are very quick
Comments at bass254@btinternet.com 

Intro:
G|---------------------------------------------------------------|
D|---------------------------------------------------------------|
A|-7--7-----------------------7--7-----------------2--2---3----5-|
E|-------7--7---5--5---7--7---------7--7---5---5-----------------|

Verse 1:                                (Play This x2)
G|-------------------------------------------------|
D|-------------------------------------------------|
A|-------------------------------------------------|
E|-0--0--0--0--0--0--0--0---7--7--7--7--7--7--7--7-|

G|-----------------------------------------------------------------------|
D|-----------------------------------------------------------------------|
A|-------------------------------------------------7--7------------------|
E|-5--5--5--5--0--0--0--0--5--5--5--5--7--7--7--7-------7--7--5--5--7--7-|

Verse 2:                                (Play This x2)
G|-------------------------------------------------|
D|-------------------------------------------------|
A|-------------------------------------------------|
E|-0--0--0--0--0--0--0--0---7--7--7--7--7--7--7--7-|

G|------------------------------------------------|
D|------------------------------------------------|
A|------------------------------------------------|
E|-5--5--5--5--0--0--0--0--5--5--5--5--7--7--7--7-|

Chorus 1:          (Play This x3)
G|------------------------|
D|------------------------|
A|-7--7-------------------|
E|-------7--7--5--5--7--7-|

Verse 3:                               [   Play Quick   ]
G|-------------------------------------------------------|
D|-------------------------------------------------------|
A|-------------------------2--2--2--2---2-4--0-2---------|
E|-0--0--0--0--0--0--0--0-----------------------3-5--2-4-|

G|------------------------------------------------------------------------|
D|------------------------------------------------------------------------|
A|-------------------------5--5--5--5-------------------------------------|
E|-0--0--0--0--0--0--0--0-------------2--2--2--2---3--3--3--3--3--3--3--3-|

G|------------------------------------------------|
D|------------------------------------------------|
A|-0--0--0--0--0--0--0--0--2--2--2--2--2--2--2--2-|
E|------------------------------------------------|

                [  Play Quick  ]
G|-------------------------------|
D|-------------------------------|
A|-2--2--2--2---2-4--0-2---------|
E|----------------------3-5--2-4-|

Chorus 2:
G|---------------------------------------------------------------------|
D|---------------------------------------------------------------------|
A|-7--7-------------------7--7-------------------7--7-------------2--2-|
E|------7--7--5--5--7--7-------7--7--5--5--7--7-------7--7--5--5-------|

                                                    [  Play Quick  ]
G|-------------------------------------------------------------------|
D|-------------------------------------------------------------------|
A|-3--3---5--5-------------------------2--2--2--2---2-4--0-2---------|
E|--------------0--0--0--0--0--0--0--0----------------------3-5--2-4-|

Verse 4:
G|------------------------------------------------------------------------|
D|------------------------------------------------------------------------|
A|-------------------------5--5--5--5-------------------------------------|
E|-0--0--0--0--0--0--0--0-------------2--2--2--2---3--3--3--3--3--3--3--3-|

G|------------------------------------------------|
D|------------------------------------------------|
A|-0--0--0--0--0--0--0--0--2--2--2--2--2--2--2--2-|
E|------------------------------------------------|

                [  Play Quick  ]
G|-------------------------------|
D|-------------------------------|
A|-2--2--2--2---2-4--0-2---------|
E|----------------------3-5--2-4-|

Chorus 3:
G|---------------------------------------------------------------------|
D|---------------------------------------------------------------------|
A|-7--7-------------------7--7-------------------7--7-------------2--2-|
E|------7--7--5--5--7--7-------7--7--5--5--7--7-------7--7--5--5-------|

G|-------------------------|
D|-------------------------|
A|-3--3--3--3---5--5--5--5-|
E|-------------------------|

Outro:                               (Repeat To Fade/End)
G|----------------------------------------------|
D|----------------------------------------------|
A|------------------------7--7------------------|
E|-0--0--7--7--5--5--7--7------7--7--5--5--7--7-|

My Thanks To KRAZIEKHAT For The Chord Sequence
Suggest correction
Give kudos to tab author, rate the tab!
1 2 3 4 5
comments
print report bad tab
guest
You may want to rate the tab now too:
select rating
Wanna post a correction for this tab? Suggest correction